Song name
# A B C D E F G H I J K L M N O P Q R S T U V W X Y Z

Mac Davis - Baby Dont Get Hooked On Me chords

Highlighted       Show chord diagrams
Baby Don't Get Hooked On Me

Mac Davis 1972

 Words and Music by Mac Davis

INTRO  (Parts of the intro are played throughout the song)
             A             D                      A
E|---------|-------------|----------------------|-------------|
B|---------|-------------|----------------------|-------------|
G|-----2---|-2-----------|----2-h-4--2------2---|-2-----------|
D|-2-4---4-|-2--2-h-4--2-|-4---------4--2-4---4-|-2--2-h-4--2-|
A|---------|-4---------4-|-5---------5----------|-4---------4-|
E|---------|-----------5-|-5--------------------|-----------5-|

   D
E|------------------------|
B|------------------------|
G|-----2-h-4---2------2---|
D|-4-----------4--2-4---4-|
A|-5-----------5----------|
E|-5----------------------|

A                          D
Girl, you're gettin' that look in your eyes
                      A         D  A
And it's startin' to worry me
                     D
I ain't ready for no family ties
                A         D  A
Nobody's gonna hurry me
C#m
Just keep it friendly, girl
         F#m
'cause I don't wanna leave
Bm
Don't start clingin' to me, girl
 E7
'Cause I can't breathe

A                      Bm
Baby, baby, don't get hooked on me
E7                     A
Baby, baby, don't get hooked on me
                                   Bm
'Cause I'll just use you then I'll set you free
E7                     D
Baby, baby, don't get hooked on me

A                  D
Girl, you're a hot-blooded woman-child
                            A           D  A
And it's warm where you're touchin' me
                        D
But I can tell by your tremblin' smile
                           A      D  A
You're seein' way too much in me
C#m                            F#m
Girl, don't let your life get tangled up with mine
 Bm
'Cause I'll just leave you
             E7
I can't take no clingin' vine

A                      Bm
Baby, baby, don't get hooked on me
E7                     A
Baby, baby, don't get hooked on me
                                   Bm
'Cause I'll just use you then I'll set you free
E7                     D
Baby, baby, don't get hooked on me

A                      Bm
Baby, baby, don't get hooked on me
E7                     A
Baby, baby, don't get hooked on me
                                   Bm
'Cause I'll just use you then I'll set you free
E7                     D
Baby, baby, don't get hooked on me
Tap to rate this tab
# A B C D E F G H I J K L M N O P Q R S T U V W X Y Z