Song name
# A B C D E F G H I J K L M N O P Q R S T U V W X Y Z

Mac Demarco - My Kind Of Woman tab

-------------------------------------------------------------------------------
                             MY KIND OF WOMAN - Mac DeMarco
-------------------------------------------------------------------------------
Tabbed by:Pape
E-mail: @Pape_1

Tuning: Standard

It starts with one stroke of F#m for a full bar. Then this is the basic riff for the verses:

E|-12---10---9---------|-----------9---------|-----------9---------|-----------10---9----|
B|-10---8---------10---|------10--------10---|------10--------10---|------10---9----7----|
G|---------------------|-11------------------|-11------------------|-11------------------|
D|---------------------|---------------------|---------------------|---------------------|
A|---------------------|---------------------|---------------------|---------------------|
E|---------------------|---------------------|---------------------|---------------------|


E|-5-------------------|-5-------------------|-3-------------------|
B|------5---------5----|------5---------5----|------3---------3----|
G|-----------6---------|-----------6---------|-----------3---------|
D|---------------------|---------------------|---------------------|
A|---------------------|---------------------|---------------------|
E|---------------------|---------------------|---------------------|

The Chord sequence for the chorus is as follows:


A-Bm-C#m-Bm-F#m/A (I'm not entirely sure about this last chord, but it seems acceptable to me)

Chido la banda.

************************************

| /   slide up
| \   slide down
| h   hammer-on
| p   pull-off
| ~   vibrato
| +   harmonic
| x   Mute note
| b   Bend
| pb  Pre-bend
| br  Bend release
| pbr Pre-bend release
| brb Bend release bend

************************************
Tap to rate this tab
 
# A B C D E F G H I J K L M N O P Q R S T U V W X Y Z