Song name
# A B C D E F G H I J K L M N O P Q R S T U V W X Y Z

Mac Demarco - My Kind Of Woman chords

Highlighted       Show chord diagrams
E-mail: Mcgridleez@yahoo.com

Song: My Kind Of Woman

Artist: Mac Demarco

Tuning (Lead/ Rhythm): Standard(EADGBe)

Tuning (Bass) : Standard (EADG)

Capo: 2nd Fret

I've been addicted to this song for God knows how long, so I figured, "What the hell?" I 
decided to combine both the bass and guitar sections as best I can.

Chords
[ Em | C | G | Am | Bm ]

Alternatively, you can play without a capo. Obviously, the tab remains unchanged, but 
the chords will be as follows:

Em = F#m

G = D

C = A

Am = Bm

Bm = C#m

Verse Riff (Lead)
e|-10---10----9-----------9----------9----------10--9--5-------5-------|
B|-12---9-----10-10----10---10----10---10----10-9---7--5-5---5---5---5-|
G|------------11----11---------11---------11-----------6---6-------6---|
D|---------------------------------------------------------------------|
A|---------------------------------------------------------------------|
E|---------------------------------------------------------------------|

e|-2-------2-|
B|-2-2---2---|
G|-2---2-----|
D|-----------|  <----- Play this section twice before the chorus
A|-----------|
E|-----------|

Chorus Riff (Lead)
e|-9---------9---------9---------12--12---9----------9---------9---------|
B|-10-10--10---10---10---10---10----------10-10---10---10---10---10---10-|
G|-9----9---------9---------9-------------9-----9---------9---------9----|
D|-----------------------------------------------------------------------|
A|-----------------------------------------------------------------------|
E|-----------------------------------------------------------------------|

e|-10---10-|
B|-9--9-9--|
G|---------|
D|---------|
A|---------|
E|---------|

Verse Riff (Bass)
G|-----------------------------------------------------------------|
D|-----------------------------------------------------------------|
A|-7-7--7-5-5--5-5-5--5-5-5--5-2-2-2-------------------------------|
E|-------------------------------------5-5--5-5-5--5-2-2--2-0-0--0-|

Chorus Riff (Bass)
G|------------------------------------------------------|
D|------------------------------------------------------|
A|--------2-2--2-4-4--4-5-5--5-2-2--2-2-2--2-2-2--2-2-2-|
E|-5-5--5-----------------------------------------------|


-----------------------------------------------------------------------------

Intro: Em

(Lead)
e|-10------|
B|-9-------|
G|-11------|
D|---------|
A|---------|
E|---------|

(Bass)
G|-------------------|
D|-------------------|
A|-9-9--9-9-9--9-9-9-|
E|-------------------|



Verse 1:

     C
Oh baby

     G  Em
Oh man

                     C
You're making me crazy

                     G  Em
Really drivin' me mad

                     C
That's alright with me

                   G  Em
It's really no fuss

                       C
As long as you're next to me
                   G  Em
Just the two of us


Chorus:

       G  Am  Bm  C         Bm
You're my my my, my kind of woman

G  Am  Bm  C        Bm
My oh my, what a girl

       G  Am  Bm  C         Bm
You're my my my, my kind of woman

        G          Am
And I'm down on my hands and knees

Bm                 C
Begging you please baby
       Bm
Please show me your world


Em


Verse 2:

         C
Oh brother

         G  Em
Sweetheart

               C
I'm feeling so tired

                  G  Em
Really fallin' apart

                            C
And it just don't make sense to me

                   G  Em
I really don't know

                        C
Why you stick right next to me

            G  Em
Wherever I go


Chorus:

       G  Am  Bm  C         Bm
You're my my my, my kind of woman

G  Am  Bm  C        Bm
My oh my, what a girl

       G  Am  Bm  C         Bm
You're my my my, my kind of woman

        G          Am
And I'm down on my hands and knees

Bm                 C
Begging you please baby
       Bm
Please show me your world


Outro: Em

(Lead)
e|-10------|
B|-9-------|
G|-11------|
D|---------|
A|---------|
E|---------|

(Bass)
G|-------------------|
D|-------------------|
A|-9-9--9-9-9--9-9-9-|
E|-------------------|
Tap to rate this tab
# A B C D E F G H I J K L M N O P Q R S T U V W X Y Z