Song name
# A B C D E F G H I J K L M N O P Q R S T U V W X Y Z

Mac Demarco - Shes Really All I Need tab

-------------------------------------------------------------------------------
                             She's Really All I Need - Mac Demarco
-------------------------------------------------------------------------------

Chords and Tab

Tabbed by: fid3l



CHORDS


Verse

Ab        Eb     Db    Eb
Up out of bed at 3 
    Cm     Fm       Db Eb
and i feel like i'm dying 
    Ab       Eb            Db      Eb  
But if she's there next to me, 
     Cm         Fm     Db  Eb
then there's no use in crying 
      Ab           Eb    Db      Eb
Cause she's really all i need, 
     Cm      Fm       Db  Eb
it's true my heart is flying
Ab          Eb     Db      Eb
Life can be such a breeze, 
   Cm      Fm        Db      Eb
as long as it's just her and me 


Chorus

Bbm           Eb        Bbm          Eb        Ab      Fm      Eb
Dont bring me down man, wearing that frown man now 

Bbm              Eb        Bbm       Eb       Ab      Fm      Eb
It's trials from my brain, step into my frame now 


Verse

Ab           Eb   Db       Eb
I smell your arts degree, 
     Cm      Fm     Db Eb
it's telling me i'm lazy    
    Ab         Eb    Db       Eb
I'm working so i can eat, 
   Cm        Fm   Db        Eb
so keep that shit away from me 
      Ab           Eb    Db      Eb
Cause she's really all i need, 
    Cm Fm        Db Eb
and up until i'm dying
Ab          Eb     Db      Eb
Life can be such a breeze, 
   Cm      Fm        Db      Eb
as long as it's just her and me 


Chorus

Bbm           Eb        Bbm          Eb        Ab      Fm      Eb
Dont bring me down man, wearing that frown man now 

Bbm              Eb        Bbm       Eb       Ab      Fm      Eb
It's trials from my brain, step into my frame now 


Solo

Bbm  Fm  Ab  Eb 



TAB


Verse

e|--------------------------------8---------------9--------------------------|
B|-----8-------6-------4------8-------6-------9-------6----------------------|
G|-8-------6-------5--------------------8-----------------4------------------|
D|---------------------------------------------------------------------------|
A|---------------------------------------------------------------------------|
E|---------------------------------------------------------------------------|


Chorus

e|---------------------------------------------------------------------------|
B|----4-----6--4-----4-----6--4----------4-----4-----------------------------|
G|-6-----6--------6-----6--------5----5-----5--------------------------------|
D|---------------------------------------------------------------------------|
A|---------------------------------------------------------------------------|
E|---------------------------------------------------------------------------|


Solo

e|--------------------------------------------------------4------------------|
B|-6h8p6\4-6------4-4---4h6p4---4------6h8p6\4-6------6b7---4---4------------|
G|------------4/5-----5-------5-------------------4/5---------5--------------|
D|---------------------------------------------------------------------------|
A|---------------------------------------------------------------------------|
E|---------------------------------------------------------------------------|

e|---------------------------------------------------------------------------|
B|-6h8p6\4-6------4-4------4h6p4---------------------------------------------|
G|------------4/5------4/5 ------5-3\1h3p1~----------------------------------|
D|---------------------------------------------------------------------------|
A|---------------------------------------------------------------------------|
E|---------------------------------------------------------------------------|

e|---------------------------------------------------------------------------|
B|-6h8p6\4-6------4-4--6b7br6p4----------------------------------------------|
G|------------4/5---------------5-0------------------------------------------|
D|---------------------------------------------------------------------------|
A|---------------------------------------------------------------------------|
E|---------------------------------------------------------------------------|




************************************

| /   slide up
| \   slide down
| h   hammer-on
| p   pull-off
| ~   vibrato
| +   harmonic
| x   Mute note
| b   Bend
| pb  Pre-bend
| br  Bend release
| pbr Pre-bend release
| brb Bend release bend

************************************
Tap to rate this tab
 
# A B C D E F G H I J K L M N O P Q R S T U V W X Y Z