Song name
# A B C D E F G H I J K L M N O P Q R S T U V W X Y Z

Mac Demarco - Rocknroll Nightclub tab

STANDART TUNING.
PETER SAGAR GUITAR.


INTRO
E|---------------------|---------------------|---------------------|---------------------|
B|---------------------|---------------------|-6-8-----------------|---------------------|
G|-5-7-----------------|---------------------|---------------------|---------------------|x2
D|---------------------|-7-10----------------|---------------------|---------------------|
A|---------------------|---------------------|---------------------|---------------------|
E|---------------------|---------------------|---------------------|---------------------|

VERSE
E|---------------------------------------------------------------------------|
B|---6---6---6---6---6---6---6---6---6---------------------------------------|
G|-8---8---8---8---8---8---8---8---8---8-7-5-7---5---------------------------|x4
D|---------------------------------------------7-----------------------------|
A|---------------------------------------------------------------------------|
E|---------------------------------------------------------------------------|

CHORUS
E|---------------------------------------------------------------------------|
B|---------------------------------------------------------------8-10--------|
G|------5-5/7\5---5-5--7/10-10---7/10------5-5/7\5---5-5--7h6/10-------------|x2
D|-5/7----------7---------------------5/7----------7-------------------------|
A|---------------------------------------------------------------------------|
E|---------------------------------------------------------------------------|

SOLO
E|-----------------------------5---5---5----8----8----8--------------------------|
B|---6---6---6---8---8---8---6---6---6---10---10---10------6---6---6---8---8---8-|
G|-7---7---7---7---7---7---------------------------------7---7---7---7---7---7---|
D|-------------------------------------------------------------------------------|
A|-------------------------------------------------------------------------------|
E|-------------------------------------------------------------------------------|

E|-----------------------------------------------------------------------------------------------|
B|-----------------------------6---6---6---8---8---8---------------------------------------------|
G|---5---5---5---7---7---7---7---7---7---7---7---7---7-7-5-5-------------------------------------|
D|-7---7---7---7---7---7-------------------------------------8-8-7-7-5-5-----5-5-----------------|
A|-----------------------------------------------------------------------8-8------8-8-8-8-8-8-8-8|
E|-----------------------------------------------------------------------------------------------|
Tap to rate this tab
# A B C D E F G H I J K L M N O P Q R S T U V W X Y Z