Song name
# A B C D E F G H I J K L M N O P Q R S T U V W X Y Z

Mac Demarco - Go Easy tab

This song is basically this:

Intro:
Lead Guitar:
E |-----9----------|----------------|----------------|----------------|
B |--9--------9----|--7--9-----7s---|--10-9-----7----|----------------|
G |----------------|----------------|----------------|--8--9-----8----|
D |----------------|----------------|----------------|----------------|
A |----------------|----------------|----------------|----------------|
E |----------------|----------------|----------------|----------------|

----------------|----------------|------------------|-----------------|
----------------|----------------|------------------|-----------------|
--9--8-----9----|--8-------------|------------------|-----------------| 2x
----------------|-----------9L---|--9L--------------|--9--------------|
----------------|--------11------|------------------|-----------------|
----------------|----------------|------------------|-----------------|

Rhythm Guitar:
E |--0--0----|--4--4----|--2--------2L---|--2--2----|
B |--2--2----|--4--4----|--4--------4L---|--4--4----|
G |--2--2----|--4--4----|--4--------4L---|--4--4----|   4x
D |--2--2----|--6--6----|--4--------4L---|--4--4----|
A |--0--0----|--6--6----|--2--------2L---|--2--2----|
E |----------|--4--4----|----------------|----------|

Verse:
Lead Guitar:
E |--0----|--4----|--2L---|--2----|
B |--2----|--4----|--4L---|--4----|
G |--2----|--4----|--4L---|--4----|     4x
D |--2----|--6----|--4L---|--4----|
A |--0----|--6----|--2L---|--2----|
E |-------|--4----|-------|-------|

Rhythm Guitar:
E |--0--0----|--4--4----|--2--2----|--2--2----|
B |--2--2----|--4--4----|--4--4----|--4--4----|
G |--2--2----|--4--4----|--4--4----|--4--4----| 4x
D |--2--2----|--6--6----|--4--4----|--4--4----|
A |--0--0----|--6--6----|--2--2----|--2--2----|
E |----------|--4--4----|----------|----------|

Chorus:
Lead Guitar:
E |----------------|-----9----------|-------|-------|
B |--9--11-11-7----|--9-----11-8----|--7L---|--7----|
G |----------------|----------------|--8L---|--8----|   4x
D |----------------|----------------|--9L---|--9----|
A |----------------|----------------|--9L---|--9----|
E |----------------|----------------|--7L---|--7----|

Rhythm Guitar:
E |--3--3----|--x--0--------0------|--2--2----|--x--2--------2----|
B |--3--3----|--x--0--------0------|--4--4----|--x--4--------4----|
G |--3--3----|--x--1--------1------|--4--4----|--x--4--------4----|     4x
D |--5--5----|--x--2--------2------|--4--4----|--x--4--------4----|
A |--5--5----|--x--2--------2------|--2--2----|--x--2--------2----|
E |--3--3----|--x--0--------0------|----------|-------------------|

Any suggestions are welcome, since I'm not sure if the tab is right.
Tap to rate this tab
 
# A B C D E F G H I J K L M N O P Q R S T U V W X Y Z