Song name
# A B C D E F G H I J K L M N O P Q R S T U V W X Y Z

Mac Demarco - Blue Boy tab

Mac DeMarco - Blue Boy
From the album "Salad Days" (Captured Tracks 2014).

Tabbed by Isaac Murguia, February 2014.
Originally uploaded to Ultimate-Guitar.com
Contact: www.youtube.com/user/Goadiroth

Tuned a quarter lower of standard.
Only tabbed the LEAD GUITAR (rhythm is hard to figure out).

INTRO:
e|-----------------------------------------------|
B|-------11--------15----13--------11--------13--|
G|-10/12-----12/14----14-----10/12-----12/14-----|
D|-----------------------------------------------|
A|-----------------------------------------------|
E|-----------------------------------------------| [x4]

Repeat INTRO

CHORUS:                                      [x3]
e|---6----8--------11-----8----|---6----8--------11-----8----|------|
B|--6----8------------------6--|---6---8------------------6--|------|
G|-8----8-----8/10------8------|-8----8-----8/10------8------|-8----|
D|-----------------------------|-----------------------------|------|
A|-----------------------------|-----------------------------|------|
E|-----------------------------|-----------------------------|------|

Repeat INTRO
Repeat CHORUS

END CHORD:
e|-6----------|
B|-6----------|
G|-8----------|
D|------------|
A|------------|
E|------------|

End. Please rate!
Tap to rate this tab
 
# A B C D E F G H I J K L M N O P Q R S T U V W X Y Z