Song name
# A B C D E F G H I J K L M N O P Q R S T U V W X Y Z

Mac Demarco - Johnnys Odyssey tab

Johnny's Odyssey
Artist: Mac Demarco
Album: Salad Days(2014)


you can use a capo 1

Intro:

E|------9------9-----7-----6-----6-----6-----7---4-----2------|
B|------------------------------------------------------------| (8x)
G|--\10-----10-----8-----6-----6-----6----\8-----4-----3------|
D|------------------------------------------------------------|
A|------------------------------------------------------------|
E|------------------------------------------------------------|

Verse:
   C#7         F#
E|--4------2---|
B|--6------2---|
G|--4----- 3---|
D|--6----- 4---|
A|--4----- 4---|
E|--x------2---|  (4x)

goes back to the intro for 4x with a small variation at the beggining and then the verse again.
Tap to rate this tab
# A B C D E F G H I J K L M N O P Q R S T U V W X Y Z