Song name
# A B C D E F G H I J K L M N O P Q R S T U V W X Y Z

Mac Demarco - Chamber Of Reflection tab

-------------------------------------------------------------------------------
                             SONG NAME - Band Name
-------------------------------------------------------------------------------
Tabbed by:
E-mail:

Tuning: standard 1/4 step down

(Lead synth)

e|---15--12------------------------------------------------------------------|
B|-----------12--13p12-11----12--13--15---12---------------------------------|
G|-------------------------------------------11---11h12p11-------------------|
D|---------------------------------------------------------14-------12h14----|
A|------------------------------------------------------------------------14-|
E|---------------------------------------------------------------------------|

(Rhythm synth) intro and verse

   Am         Bm          C                       Am          Bm        Em
e|---------------------------------------------------------------------------|
B|----------------------------------------------------------------------8----|
G|-5----------7-----------9-----------------------5-----------7---------9----|
D|-7----------9-----------10----------------------7-----------9---------9----|
A|-7----------9-----------10----------------------7-----------9---------7----|
E|-5----------7-----------8-----------------------5-----------7--------------|

(Rhythm synth) chorus

   Am         Bm          Em
e|---------------------------------|
B|------------------------8--------|
G|-5----------7-----------9--------|
D|-7----------9-----------9--------|
A|-7----------9-----------7--------|
E|-5----------7--------------------|

************************************

| /   slide up
| \   slide down
| h   hammer-on
| p   pull-off
| ~   vibrato
| +   harmonic
| x   Mute note
| b   Bend
| pb  Pre-bend
| br  Bend release
| pbr Pre-bend release
| brb Bend release bend

************************************
Tap to rate this tab
# A B C D E F G H I J K L M N O P Q R S T U V W X Y Z