Mac Demarco - Blue Boy tab

INTRO:
e|-----------------------------------------------|
B|-------11--------15----13--------11--------13--|
G|------------14/15----14-----11/12-----12/14----|
D|-11/12-----------------------------------------|
A|-----------------------------------------------|
E|-----------------------------------------------| [x4]

Repeat INTRO

CHORUS:                                      [x3]
e|-6----8--------11-----8----|---6----8----------11-----8--10|------|
B|-6----8-----------------6--|---6----8----------------------|------|
G|-7----8---8/12------8------|-8-7----8----10/12------8----10|------|
D|---------------------------|-------------------------------|------|
A|---------------------------|-------------------------------|------|
E|---------------------------|-------------------------------|------|

Repeat INTRO
Repeat CHORUS

END CHORD:
e|-6----------|
B|-6----------|
G|-7----------|
D|------------|
A|------------|
E|------------|

Tuned a 1/4 step down.
Tabbed by Chris Cochran- feel free to correct

Blue boy
Worried 'bout the worlds eyes
Worried
Every time the sun shines
Worr-ied 'bout-his hair-cut
Calm Down, sweetheart, grow up

Blue boy
Blue boy
Blue boy
Blue boy

Blue boy
Older than the world knows
Honey, that's the way that life goes
No use, acting, so tough
Calm down, sweetheart, grow up

Blue boy
Blue boy
Blue boy
Blue boy
Tap to rate this tab
 
# A B C D E F G H I J K L M N O P Q R S T U V W X Y Z