Song name
# A B C D E F G H I J K L M N O P Q R S T U V W X Y Z

Mac Dre - Since 84 tab

Since 84 by Mac Dre pretty simple but fun to play. It sounds nice with a small amount of 
on it, but you can figure that out. Enjoy

Main Chords for whole song, just a small side note as well. every time main riff starts 
first chord is only played twice but is than play three times for the rest of the progression.

e--7-7-7--9-10-9-7--7-7-7--9-10-9-7--7-7-7--9-10-9-7--7-7-7-7--10-10-10-10-|
B--8-8-8--8-8--8-8--7-7-7--7--7-7-7--8-8-8--8-8--8-8--7-7-7-7--7--7--7--7--|
G--9-9-9--9-9--9-9--7-7-7--7--7-7-7--9-9-9--9-9--9-9--7-7-7-7--7--7--7--7--|
D--------------------------------------------------------------------------|
A--------------------------------------------------------------------------|
E--------------------------------------------------------------------------|

e-10-10-10-|
B-7--7--7--|
G-7--7--7--|
D----------|
A----------|
E----------|

Solo/ fills

e-12/14--15-14-12-10--10-12-14--15-14-12-10--10-12-14--15-14-12-10--10-12-14-|
B----------------------------------------------------------------------------|
G----------------------------------------------------------------------------|
D----------------------------------------------------------------------------|
A----------------------------------------------------------------------------|
E----------------------------------------------------------------------------|

e-15-14-12-14-|
B-------------|
G-------------|
D-------------|
A-------------|
E-------------|

The short fills are just variations from this riff mostly a 12 sliding to 14. And i 
thats about it. pretty easy hope it helps enjoy
Tap to rate this tab
# A B C D E F G H I J K L M N O P Q R S T U V W X Y Z