Guitaretab - guitar tabs
Song name
# A B C D E F G H I J K L M N O P Q R S T U V W X Y Z

Mac Dre - Since 84 tab

     Regular Tuning= EADGBe

     Intro plays throughout the song
1|--7~--7~--9--10--9--7--7~--7~--9--10--9--7--------|
2|--8~--8~---------------7~--7~---------------------|
3|--9~--9~---------------7~--7~---------------------|
4|--------------------------------------------------|
5|--------------------------------------------------|
6|--------------------------------------------------|

1|--7~--7~--9--10--9--7--7~--7~--10101010--10-101010-|
2|--8~--8~---------------7~--7~----------------------|
3|--9~--9~---------------7~--7~----------------------|
4|---------------------------------------------------|
5|---------------------------------------------------|
6|---------------------------------------------------|
[ Tab from: http://www.guitaretab.com/m/mac-dre/70471.html ]
     Solo played in Intro and the chorus's
1|--10/14-15-14-12-10--10-12-12/14------------------\-|
2|----------------------------------------------------| \
3|----------------------------------------------------|  \ Play Three
4|----------------------------------------------------|  /  Times
5|----------------------------------------------------| /
6|----------------------------------------------------|

     On the Fourth Time play this
1|--15-14-12--14------------------------------------\-|
2|----------------------------------------------------| \
3|----------------------------------------------------|  \ Hope U
4|----------------------------------------------------|  / Enjoy It
5|----------------------------------------------------| /
6|----------------------------------------------------|
Related for Since 84 tab
×
Since 84