Song name
# A B C D E F G H I J K L M N O P Q R S T U V W X Y Z

Mac Dre - Dreganomics tab

now this is my first tab. so if its off. well bite me its mac dre and im just some emo kid. lol.

listen to the song for timing.

e-----------------------------------------------------|
B--------0----------1-------1--------0--------1-------|
G------1---1------2---2---2--------1--------2---------|
D----2----------2-------2--------2--------2-----------|
A--2----------0----------------2--------0-------------|
E-----------------------------------------------------|
       


e-----------------------------------------------------|
B--1---1----------------------------------------------|
G--2---2----------------------------------------------|
D--2---2----------------------------------------------|
A--0---0----------------------------------------------|
E-----------------------------------------------------|


let me know what you think. this is the whole song over and over again
Tap to rate this tab
# A B C D E F G H I J K L M N O P Q R S T U V W X Y Z