Song name
# A B C D E F G H I J K L M N O P Q R S T U V W X Y Z

Mac Miller - Senior Skip Day tab

-----------------------------------------------------------------
SENIOR SKIP DAY - Mac Miller
-----------------------------------------------------------------
Tabbed by: Frank Truei
Email: truei.frank@gmail.com

Tuning:Standard (EADGBe)
This is the only line repeated over and over, with other electronic parts eliminated.  
It is important to get the right shortness of plucked notes (fingerpicking is advised for 
this song), with the full chords plucked to let the notes ring.

The x's for muting are optional (youd hit/mute the strings with your hand)!

e|--6---------x---6--------x--------6----------x---6----------|
B|6---6---6---x-6---6---6--x----6-8---8-6-8----x-8---8-6-8----|
G|8-----8-----x-8-----8----x--8---7------------x-7------------|  Repeat
D|8-----------x-8----------x------8------------x-8------------|
A|6-----------x-6----------x------6------------x-6------------|
E|------------x------------x-------------------x--------------|
Tap to rate this tab
 
# A B C D E F G H I J K L M N O P Q R S T U V W X Y Z