Mac Miller - Another Night tab

-------------------------------------------------------------------------------
			     ANOTHER NIGHT - Mac Miller
-------------------------------------------------------------------------------
Tabbed by: EricConnor6
Email:ebby032@yahoo.com
Play through the whole thing the first time, then just play the first line for the 
rest of the song. Pretty cool song to play once you get it.
Tuning: Standard

e|------8----8--x-8---x---8--x-8---x----9--x-9---x---4--x--4--x------------|
B|------9----9--x-9---x---8--x-8---x----9--x-9---x---4--x--4--x------------|
G|------8h10-8--x-8---x---8--x-8---x----10-x-10--x---5--x--5--x------------|
D|------10---10-x-10--x---10-x-10--x----11-x-11--x---6--x--6--x------------|
A|----8-8----8--x-8---x---10-x-10--x----11-x-11--x---6--x--6--x------------|
E|--------------x-----x-8-8--x-8---x--9-9--x-9---x-4-4--x--4--x------------|

e|------8----8--x-8---x---8--x-8---x----9--x-9---x--4----------------------|
B|------9----9--x-9---x---8--x-8---x----9--x-9---x--4----------------------|
G|------8h10-8--x-8---x---8--x-8---x----10-x-10--x--5-hold-----------------|
D|------10---10-x-10--x---10-x-10--x----11-x-11--x--6----------------------|
A|----8-8----8--x-8---x---10-x-10--x----11-x-11--x--6----------------------|
E|--------------x-----x-8-8--x-8---x--9-9--x-9---x--4----------------------|




************************************

| /   slide up
| \   slide down
| h   hammer-on
| p   pull-off
| ~   vibrato
| +   harmonic
| x   Mute note
| b   Bend
| pb  Pre-bend
| br  Bend release
| pbr Pre-bend release
| brb Bend release bend
Tap to rate this tab
 
# A B C D E F G H I J K L M N O P Q R S T U V W X Y Z