Song name
# A B C D E F G H I J K L M N O P Q R S T U V W X Y Z

Mac Miller - Another Night Alone tab

#----------------------------------PLEASE NOTE---------------------------------#
#This file is the author's own work and represents their interpretation of the #
#song. You may only use this file for private study, scholarship, or research. #
#------------------------------------------------------------------------------#


So this is my first tab just figured  Should put this out since they dont have a good 
version of it

Chords played through the song

eb|--------------------------------------------5-------------------------------------|
Bb|-----10-------10-------5--5-------7--7------5-------------------------------------|
Gb|------9--------9-------4--4-------7--7---6--6-------------------------------------|
Db|------9h11p9--11-------6--6-------7--7---7--7-------------------------------------|
Ab|---9--9--------9----4--4--4----5--5--5---7--7-------------------------------------|
Eb|-----------------------------------------5--5-------------------------------------|

Violin like part (Around like 1:40)
eb|--------------------------------------|
Bb|--------10h129h10---12h14-12-10-9----|
Gb|----11--------------------------------|
Db|--------------------------------------|
Ab|--------------------------------------|
Eb|--------------------------------------|

Tabbed By The Nages
Tap to rate this tab
 
# A B C D E F G H I J K L M N O P Q R S T U V W X Y Z