Song name
# A B C D E F G H I J K L M N O P Q R S T U V W X Y Z

Macabre - The Iceman tab

tuned to drop c

VERSE
|---------------------------------------------------------------|
|---------------------------------------------------------------|
|---------------------------------------------------------------|
|---------------------------------------------------------------|
|---------2-3----------2-3----------2-3----------2-3------------|
|44444444-2-3-44444444-2-3-44444444-2-3-44444444-2-3------------|

|---------------------------------------------------------------|
|---------------------------------------------------------------|
|---------------------------------------------------------------|
|---------------------------------------------------------------|
|---------0-1----------0-1----------0-1----------0-1------------|
|44444444-0-1-44444444-0-1-44444444-0-1-44444444-0-1------------|

|---------------------------------------------------------------|
|---------------------------------------------------------------|
|---------------------------------------------------------------|
|---------------------------------------------------------------|
|---------6-7----------6-7----------6-7----------6-7------------|
|44444444-6-7-44444444-6-7-44444444-6-7-44444444-6-7------------|

CHORUS(twice)
|---------------------------------------------------------------|
|---------------------------------------------------------------|
|---------------------------------------------------------------|
|---------------------------------------------------------------|
|---------7----------9----------10------11------12--------------|
|44444444-7-44444444-9-44444444-10-4444-11-4444-12--------------|
 
(twice)
|---------------------------------------------------------------|
|---------------------------------------------------------------|
|---------------------------------------------------------------|
|---------------------------------------------------------------|
|---------3----------5----------6------7------8-----------------|
|00000000-3-00000000-5-00000000-6-0000-7-0000-8-----------------|

RIFF BEHIND LEAD(5 times)
|---------------------------------------------------------------|
|---------------------------------------------------------------|
|---------------------------------------------------------------|
|-^--------^--------^--------/----------------------------------|
|3-4------3-4------3-4------4-3---5-----------------------------|
|----0000-----0000-----0000-----0-5-----------------------------|

|---------------------------------------------------------------|
|---------------------------------------------------------------|
|---------------------------------------------------------------|
|-^--------^--------^-------------------------------------------|
|3-4------3-4------3-4------6-5---------------------------------|
|----0000-----0000-----0000-6-5---------------------------------|

|---------------------------------------------------------------|
|---------------------------------------------------------------|
|---------------------------------------------------------------|
|-^--------^--------^--------/----------------------------------|
|3-4------3-4------3-4------4-3---7-----------------------------|
|----0000-----0000-----0000-----0-------------------------------|

|---------------------------------------------------------------|
|---------------------------------------------------------------|
|---------------------------------------------------------------|
|-^--------^--------^-------------------------------------------|
|3-4------3-4------3-4------7-6-5-------------------------------|
|----0000-----0000-----0000-7-6-5-------------------------------|

END
|---------------------------------------------------------------|
|---------------------------------------------------------------|
|---------------------------------------------------------------|
|---------------------------------------------------------------|
|---------2-3----------2-3----------2-3----------2-3------------|
|44444444-2-3-44444444-2-3-44444444-2-3-44444444-2-3------------|

|---------------------------------------------------------------|
|---------------------------------------------------------------|
|---------------------------------------------------------------|
|-^--------^--------^--------/----------------------------------|
|3-4------3-4------3-4------4-3---5-----------------------------|
|----0000-----0000-----0000-----0-5-----------------------------|


   ^ = hammer
   / = pull off

thats that! except for the lead cuz I'm lazy





Tap to rate this tab
# A B C D E F G H I J K L M N O P Q R S T U V W X Y Z