Song name
# A B C D E F G H I J K L M N O P Q R S T U V W X Y Z

Macabre - Evil Ole Soul tab

Band:  Macabre
Album: Gloom
Song:  Evil Ole Soul

Copyright (c)  Vinyl Solution Records 1989
Version 1.0 - 2.2.2010

Transcribed By: Yaniv Dekel (Licky Webster)
Email:          lickywebster@yahoo.com


Tuning E A D G B E


|------------------------------------------------|
|-10-9----------10-9------10-9-------------------|
|-10-9---9--8---10-9-9----10-9---9--9--9--9--8---|
|-10-9---10-9---10-9-10---10-9---10-10-10-10-9---|
|-8--7---10-9---8--7-10---8--7---10-10-10-10-9---|
|--------8--7--------8-----------8--8--8--8--7---|

 ------------------------------------------------|
 -10-1010---9-99---------------------------------|
 -10-1010---9-99---9--9--9--8--------------------|
 -10-1010---9-99---10-10-10-9--------------------|
 -8--8-8----7-77---10-10-10-9--------------------|
 ------------------8--8--8--7--------------------|

END
Tap to rate this tab
# A B C D E F G H I J K L M N O P Q R S T U V W X Y Z