Song name
# A B C D E F G H I J K L M N O P Q R S T U V W X Y Z

Mach Pelican - Dance In Chicago tab

Help us improve GuitareTab! Take a short survey!
----------------------------------------------------------------------------
                         DANCE IN CHICAGO - Mach Pelican
----------------------------------------------------------------------------
Tabbed by: Roper404
Email:

Tuning: Standard


Intro/Chorus
e|-------------------------------------------------------------------------|
B|-------------------------------------------------------------------------|
G|------------------9---9-9-9-9-9-9--7---7-7--9---9-9----------------------|
D|-7---7-7-7-7-7-7--9---9-9-9-9-9-9--7---7-7--9---9-9--7---7-7-7-7-7-7-----|
A|-7---7-7-7-7-7-7--7---7-7-7-7-7-7--5---5-5--7---7-7--7---7-7-7-7-7-7-----|
E|-5---5-5-5-5-5-5-------------------------------------5---5-5-5-5-5-5-----|


Verse
e|-------------------------------------------------------------------------|
B|-------------------------------------------------------------------------|
G|----------7--7-7--9---9-9------------------------------------------------|
D|-7---7-7--7--7-7--9---9-9--7---------------------------------------------|
A|-7---7-7--5--5-5--7---7-7--7---------------------------------------------|
E|-5---5-5-------------------5---------------------------------------------|


Pre-chorus
e|-------------------------------------------------------------------------|
B|-------------------------------------------------------------------------|
G|-7--7-7-7-7-7-7------------------7--7-7-7-7-7-7--------------------------|
D|-7--7-7-7-7-7-7--9--9-9-9-9-9-9--7--7-7-7-7-7-7--9--9-9-9-9-9-9----------|
A|-5--5-5-5-5-5-5--9--9-9-9-9-9-9--5--5-5-5-5-5-5--9--9-9-9-9-9-9----------|
E|-----------------7--7-7-7-7-7-7------------------7--7-7-7-7-7-7----------|

e|-------------------------------------------------------------------------|
B|-------------------------------------------------------------------------|
G|-7--7-7-7-7-7-7------------------7--7-7-7-7-7-7--9--9-9-9-9-9-9----------|
D|-7--7-7-7-7-7-7--9--9-9-9-9-9-9--7--7-7-7-7-7-7--9--9-9-9-9-9-9----------|
A|-5--5-5-5-5-5-5--9--9-9-9-9-9-9--5--5-5-5-5-5-5--7--7-7-7-7-7-7----------|
E|-----------------7--7-7-7-7-7-7------------------------------------------|


Out Chorus (just 2 frets higher)
e|-------------------------------------------------------------------------|
B|-------------------------------------------------------------------------|
G|------------------11--11-11-11-11-11-11--9--9-9-11--11-11----------------|
D|-9---9-9-9-9-9-9--11--11-11-11-11-11-11--9--9-9-11--11-11-9---9-9-9-9-9-9|
A|-9---9-9-9-9-9-9--9----9--9--9--9--9--9--7--7-7--9---9--9-9---9-9-9-9-9-9|
E|-7---7-7-7-7-7-7------------------------------------------7---7-7-7-7-7-7|

These guys are so cool.

www.machpelican.com.au/

Related for Dance In Chicago tab