Song name
# A B C D E F G H I J K L M N O P Q R S T U V W X Y Z

Mach Turtle - Human Dog tab

I'm not sure exactly how it goes but this is the general idea. I will
try to figure out the rest soon. It is all in standard tuning. For
any questions, e-mail me at: eltruthcam@yahoo.com

MAIN RIFF
|--3-3--4-4-4-4\3--3-3--6-6-6-6--|
|--4-4--4-4-4-4\3--3-3--6-6-6-6--|
|--5-5--5-5-5-5\4--4-4--8-8-8-8--|
|--5-5--6-6-6-6\5--5-5--8-8-8-8--|
|--3-3--6-6-6-6\5--5-5--6-6-6-6--|
|-------4-4-4-4\3--3-3--6-6-6-6--|

SOLO (as much as I know of it)
|-----------------------        ------------------|
|-----------------------        ------------------|
|--5-7-8-8-8-10-8-7---7-(REPEAT)-5----------------|
|-------------------8---        ---5-6-5h6p5-5----|
|-----------------------        ---------------5--|
|-----------------------        ------------------|
Tap to rate this tab
# A B C D E F G H I J K L M N O P Q R S T U V W X Y Z