Guitaretab - guitar tabs
Song name
# A B C D E F G H I J K L M N O P Q R S T U V W X Y Z

Mach Turtle - Build Me A Wardrobe tab

This Song is New and I hope You Like what I done with the place...

The WHOLE song is all Van Halen style Palm Muted...

Intro/Main Riff

E----------------------------------------------------------------------|
B----------------------------------------------------------------------|
G-22bh-12bh>>>>>>>>>>-24bh/6bh-----------------------------------------|
D-1bh--5bh->>>>>>>>>>-1bh/17bh-----------------------------------------|
A-17bh-13bh>>>>>>>>>>-12bh/1bh-----------------------------------------|
E----------------------------------------------------------------------|

[ Tab from: http://www.guitaretab.com/m/mach-turtle/68132.html ]
E--1bh---2bh---3bh--4bh--5bh--6bh---7bh--9bh---10bh--11bh--12bh--13bh-14bh|
B--1bh---2bh---3bh--4bh--5bh--6bh---7bh--9bh---10bh--11bh--12bh--13bh-14bh|
G--1bh---2bh---3bh--4bh--5bh--6bh---7bh--9bh---10bh--11bh--12bh--13bh-14bh|
D--1bh---2bh---3bh--4bh--5bh--6bh---7bh--9bh---10bh--11bh--12bh--13bh-14bh|
A--1bh---2bh---3bh--4bh--5bh--6bh---7bh--9bh---10bh--11bh--12bh--13bh-14bh|
E--1bh---2bh---3bh--4bh--5bh--6bh---7bh--9bh---10bh--11bh--12bh--13bh-14bh|


THEN THE Tapping PART: Habuh??

E---15bh---16bh---17bh---18bh---19bh---20bh---21bh---22bh---23bh---24bh--|
B---15bh---16bh---17bh---18bh---19bh---20bh---21bh---22bh---23bh---24bh--|
G---15bh---16bh---17bh---18bh---19bh---20bh---21bh---22bh---23bh---24bh--|
D---15bh---16bh---17bh---18bh---19bh---20bh---21bh---22bh---23bh---24bh--|
A---15bh---16bh---17bh---18bh---19bh---20bh---21bh---22bh---23bh---24bh--|
E---15bh---16bh---17bh---18bh---19bh---20bh---21bh---22bh---23bh---24bh--|



Play the main Riff Over again and you got it!
And that's the song!!
                    ~
bh= bend and Hammer on...
>>>>>>= slide...


Enjoy!!
Related for Build Me A Wardrobe tab
×
Build Me A Wardrobe