Song name
# A B C D E F G H I J K L M N O P Q R S T U V W X Y Z

Machetazo - Alucinaciones Blasfemas tab

Machetazo - Alucinaciones blasfemas
B tuning (2.5 steps down)

www.machetazo.org

INTRO RIFF 1x
|-------------------------------------------------------------------------|
|-------------------------------------------------------------------------|
|-------------------------------------------------------------------------|
|---------77776666----6666------------------------------------------------|
|-----7-9---------8888----88887777-88887777----7777-----------------------|
|-----5-7----------------------------------8888-----88887777-88887777-----|
RTYHM TO ABOVE RIFF 1x
|-------------------------------------------------------------------------|
|-------------------------------------------------------------------------|
|-------------------------------------------------------------------------|
|-----7-9-------------6-3--3----------------------------------------------|
|-----7-9-------------6-3--3-------10-7----------------9-10---------------|
|-----5-7-------------4-1--1-------8--5----------------7-8----------------|

CTND x3
|-------------------------------------------------------------------------|
|-------------------------------------------------------------------------|
|-------------------------------------------------------------------------|
|---------77776666----6666------------------------------------------------|
|-----7-9---------8888----88887777-88887777----7777-----------------------|
|-----5-7----------------------------------8888-----88887777-88887777-----|



1ST VERSE 
|-------------------------------------------------------------------------|
|-------------------------------------------------------------------------|
|-------------------------------------------------------------------------|
|-------------------------------------------------------------------------|
|---------------------------7/9-99-----------------------7/9-99-----------|
|--------000000000000000000-5/7-77----000000000000000000-5/7-77-----------|

|-------------------------------------------------------------------------|
|-------------------------------------------------------------------------|
|-------------------------------------------------------------------------|
|-------------------------------------------------------------------------|
|---------------------------7/9-99-----------------------7/9-99-----------|
|--------000000000000000000-5/7-77----000000000000000000-5/7-77-----------|

|-------------------------------------------------------------------------|
|-------------------------------------------------------------------------|
|-------------------------------------------------------------------------|
|-------------------------------------------------------------------------|
|---------------------------7-4-----------------------7-4-----------------|
|--------222222222222222222-5-2----222222222222222222-5-2-----------------|

|-------------------------------------------------------------------------|
|-------------------------------------------------------------------------|
|-------------------------------------------------------------------------|
|-------------------------------------------------------------------------|
|---------------------------7/9-99-----------------------7/9-99-----------|
|--------000000000000000000-5/7-77----000000000000000000-5/7-77-----------|


INTRO RIFF AGAIN
|-------------------------------------------------------------------------|
|-------------------------------------------------------------------------|
|-------------------------------------------------------------------------|
|---------77776666----6666------------------------------------------------|
|-----------------8888----88887777-88887777----7777-----------------------|
|------------------------------------------8888-----88887777-88887777-----|

|-------------------------------------------------------------------------|
|-------------------------------------------------------------------------|
|-------------------------------------------------------------------------|
|---------77776666----6666------------------------------------------------|
|-----7-9---------8888----88887777-88887777----7777-----------------------|
|-----5-7----------------------------------8888-----88887777-88887777-----|

|-------------------------------------------------------------------------|
|-------------------------------------------------------------------------|
|-------------------------------------------------------------------------|
|---------77776666----6666------------------------------------------------|
|-----7-9---------8888----88887777-88887777----7777-----------------------|
|-----5-7----------------------------------8888-----88887777-88887777-----|

|-------------------------------------------------------------------------|
|-------------------------------------------------------------------------|
|-------------------------------------------------------------------------|
|---------77776666----6666------------------------------------------------|
|-----7-9---------8888----88887777-88887777----7777-----------------------|
|-----5-7----------------------------------8888-----88887777-88887777-----|



2ND VERSE
|-------------------------------------------------------------------------|
|-------------------------------------------------------------------------|
|-------------------------------------------------------------------------|
|-------------------------------------------------------------------------|
|---------------------------7/9-99-----------------------7/9-99-----------|
|--------000000000000000000-5/7-77----000000000000000000-5/7-77-----------|

|-------------------------------------------------------------------------|
|-------------------------------------------------------------------------|
|-------------------------------------------------------------------------|
|-------------------------------------------------------------------------|
|---------------------------7/9-99-----------------------7/9-99-----------|
|--------000000000000000000-5/7-77----000000000000000000-5/7-77-----------|

|-------------------------------------------------------------------------|
|-------------------------------------------------------------------------|
|-------------------------------------------------------------------------|
|-------------------------------------------------------------------------|
|---------------------------7-4-----------------------7-4-----------------|
|--------222222222222222222-5-2----222222222222222222-5-2-----------------|

|-------------------------------------------------------------------------|
|-------------------------------------------------------------------------|
|-------------------------------------------------------------------------|
|-------------------------------------------------------------------------|
|---------------------------7/9-99-----------------------7/9-99-----------|
|--------000000000000000000-5/7-77----000000000000000000-5/7-77-----------|


BREAK RIFF 4x
|-------------------------------------------------------------------------|
|-------------------------------------------------------------------------|
|-------------------------------------------------------------------------|
|-------------------------------------------------------------------------|
|--2-----2-----2-----2-----------222222------111111-----------------------|
|--0-0-0-0-0-0-0-0-0-0-0-0-333333------333333-----------------------------|
    PMPM  PMPM  PMPM  PMPM


INTRO RIFF x4
|-------------------------------------------------------------------------|
|-------------------------------------------------------------------------|
|-------------------------------------------------------------------------|
|---------77776666----6666------------------------------------------------|
|-----7-9---------8888----88887777-88887777----7777-----------------------|
|-----5-7----------------------------------8888-----88887777-88887777-----|


LAST VERSE
|-------------------------------------------------------------------------|
|-------------------------------------------------------------------------|
|-------------------------------------------------------------------------|
|-------------------------------------------------------------------------|
|---------------------------7/9-99-----------------------7/9-99-----------|
|--------000000000000000000-5/7-77----000000000000000000-5/7-77-----------|

|-------------------------------------------------------------------------|
|-------------------------------------------------------------------------|
|-------------------------------------------------------------------------|
|-------------------------------------------------------------------------|
|---------------------------7/9-99-----------------------7/9-99-----------|
|--------000000000000000000-5/7-77----000000000000000000-5/7-77-----------|

|-------------------------------------------------------------------------|
|-------------------------------------------------------------------------|
|-------------------------------------------------------------------------|
|-------------------------------------------------------------------------|
|---------------------------7-4-----------------------7-4-----------------|
|--------222222222222222222-5-2----222222222222222222-5-2-----------------|

|-------------------------------------------------------------------------|
|-------------------------------------------------------------------------|
|-------------------------------------------------------------------------|
|-------------------------------------------------------------------------|
|---------------------------7/9-99-----------------------7/9-99---END-----|
|--------000000000000000000-5/7-77----000000000000000000-5/7-77-----------|
Tap to rate this tab
 
# A B C D E F G H I J K L M N O P Q R S T U V W X Y Z