Song name
# A B C D E F G H I J K L M N O P Q R S T U V W X Y Z

Machetazo - Cripta tab

Machetazo - Cripta
Tune to B (2.5 steps down)
Easy song to learn and fun to play

http://www.machetazo.org/

Verse Riff 4x
|-------------------------------------------------------------------------|
|-------------------------------------------------------------------------|
|-------------------------------------------------------------------------|
|-5-5------5-5------5-5------5-5------5-5------5-5------5-5------4--6--6--|
|-5-5--55--5-5--55--5-5--55--5-5--55--5-5--55--5-5--55--5-5--55--4--6--6--|
|-3-3--33--3-3--33--3-3--33--3-3--33--3-3--33--3-3--33--3-3--33--2--4--4--|
       PM       PM       PM       PM       PM       PM       PM

Chorus Riff 4x
|-------------------------------------------------------------------------|
|-------------------------------------------------------------------------|
|-------------------------------------------------------------------------|
|-------2-2----2-2----2-2-------------------------------------------------|
|-------2-2----2-2----2-2-----2h3-3-3-------------------------------------|
|-------0-0-00-0-0-00-0-0-00--0h1-1-1-------------------------------------|
            PM     PM     PM

Verse Riff 4x
|-------------------------------------------------------------------------|
|-------------------------------------------------------------------------|
|-------------------------------------------------------------------------|
|-5-5------5-5------5-5------5-5------5-5------5-5------5-5------4--6--6--|
|-5-5--55--5-5--55--5-5--55--5-5--55--5-5--55--5-5--55--5-5--55--4--6--6--|
|-3-3--33--3-3--33--3-3--33--3-3--33--3-3--33--3-3--33--3-3--33--2--4--4--|
       PM       PM       PM       PM       PM       PM       PM

Chorus Riff 4x
|-------------------------------------------------------------------------|
|-------------------------------------------------------------------------|
|-------------------------------------------------------------------------|
|-------2-2----2-2----2-2-------------------------------------------------|
|-------2-2----2-2----2-2-----2h3-3-3-------------------------------------|
|-------0-0-00-0-0-00-0-0-00--0h1-1-1-------------------------------------|
            PM     PM     PM

END ON
|-------------------------------------------------------------------------|
|-------------------------------------------------------------------------|
|-------------------------------------------------------------------------|
|--2----------------------------------------------------------------------|
|--2----------------------------------------------------------------------|
|--0----------------------------------------------------------------------|
Tap to rate this tab
# A B C D E F G H I J K L M N O P Q R S T U V W X Y Z