Song name
# A B C D E F G H I J K L M N O P Q R S T U V W X Y Z

Machetazo - Yo Fui Un Canibal Adolescente tab

Band:  Machetazo
Album: Trono De Huesos
Song: Yo Fui Un Canibal Adolescente


Transcribed By: Pablo1349


.  - palm mute           /  - slide up to
\  - slide down to       ~  - vibrato
h  - hammer on           b  - Bend
p  - pull off            Suffixes for bend
t  - tap                 f  - full bend    h - half bend
ph - pinched harmonic    q  - quarter bend t - tap bend
*  - see comment         ^  - Hold bend    r release bend
x  - Stuccatto           ~  - vibrato bend
,  - slight palm mute    () - ghost note, sustained note
"  - tremolo note        <> - Trill

Tuning B E A D F# B

|----------------------------------------------------|
|----------------------------------------------------|
|----------------------------------------------------|
|----------------------------------------------------|
|-4-2------4-2------4-2------4-2---4--------3--------|x4
|-2-0----0-2-0----0-2-0----0-2-0---------------------|
                                   "        "

Verse:
|--------------------------------------------------|
|--------------------------------------------------|
|--------------------------------------------------|
|--------------------------------------------------|
|------------------------------------------------4-|
|-0--------1----0----1--------0--------1----0------|
  "        "    "    "        "        "    "    "

|--------------------------------------------------|
|--------------------------------------------------|
|--------------------------------------------------|
|--------------------------------------------------|
|------------------------------------------------5-|x2
|-0--------1----0----1--------0--------1----0------|
  "        "    "    "        "        "    "    "



|----------------------------------------------------|
|----------------------------------------------------|
|----------------------------------------------------|
|----------------------------------------------------|
|-4-2------4-2------4-2------4-2---4--------3--------|x4
|-2-0----0-2-0----0-2-0----0-2-0---------------------|
                                   "        "

Verse 2
|--------------------------------------------------|
|--------------------------------------------------|
|--------------------------------------------------|
|--------------------------------------------------|
|------------------------------------------------4-|
|-0--------1----0----1--------0--------1----0------|
  "        "    "    "        "        "    "    "

|--------------------------------------------------|
|--------------------------------------------------|
|--------------------------------------------------|
|--------------------------------------------------|
|------------------------------------------------5-|x2
|-0--------1----0----1--------0--------1----0------|
  "        "    "    "        "        "    "    "

|----------------------------------------------------|
|----------------------------------------------------|
|----------------------------------------------------|
|----------------------------------------------------|
|-4-2------4-2------4-2------4-2---4--------3--------|x4
|-2-0----0-2-0----0-2-0----0-2-0---------------------|
                                   "        "
|-------------------|
|-------------------|
|-------------------|
|-------------------|
|-4--------3--------|x4
|-------------------|
  "        "

END
Tap to rate this tab
 
# A B C D E F G H I J K L M N O P Q R S T U V W X Y Z