Song name
# A B C D E F G H I J K L M N O P Q R S T U V W X Y Z

Machetazo - Trono De Huesos tab

Band: Machetazo
Album: The Maggot Sessions MCD
Song: Trono De Huesos

Transcribed By: Pablo1349


.  - palm mute           /  - slide up to
\  - slide down to       ~  - vibrato
h  - hammer on           b  - Bend
p  - pull off            Suffixes for bend
t  - tap                 f  - full bend    h - half bend
ph - pinched harmonic    q  - quarter bend t - tap bend
*  - see comment         ^  - Hold bend    r release bend
x  - Stuccatto           ~  - vibrato bend
,  - slight palm mute    () - ghost note, sustained note
"  - tremolo note        <> - Trill

Tuning B E A D F# B


Intro
|----------------------------------------------------------------------------|
|----------------------------------------------------------------------------|
|----------------------------------------------------------------------------|
|-9--------11----12--------2---4---5-------4/5\4----2--------11--9---7-------|
|-7--------9-----10--------0---2---3-------2/3\2----0--------9---7---5-------|
|----------------------------------------------------------------------------|

|-------------------------------------------------------------------|
|-------------------------------------------------------------------|
|-------------------------------------------------------------------|
|-9-----11---------12---11--9--------7------9----------------7------|
|-7-----9----------10---9---7--------5------7----------------5*-----|x2
|-------------------------------------------------------------------|
                       * = Don't Play This Last Chord The 2nd Time and let Ring


|---------------------------------------------|
|---------------------------------------------|
|---------------------------------------------|
|---------------------------------------------|
|-6--7--6--4--6--7--6--4--6--7--6--4--3-------|
|-4--5--4--2--4--5--4--2--4--5--4--2--1-------|
                                   .

**
|--------------------------------------------------------|
|--------------------------------------------------------|
|--------------------------------------------------------|
|--------------------------------------------------------|
|-4-4--44444--4--6--7--6--4--3-3--3-3-3--3-3-3--3-3-3--3-|
|-2-2--22222--2--4--5--4--2--1-1--1-1-1--1-1-1--1-1-1--1-|
       .....
|--------------------------------------------------------|
|--------------------------------------------------------|
|--------------------------------------------------------|
|----------------------------5-5--5-5-5--5-5-5--5-5-5--5-|
|-4-4--44444--4--6--7--6--4--3-3--3-3-3--3-3-3--3-3-3--3-|x2 Since **
|-2-2--22222--2--4--5--4--2------------------------------|
       .....
|------------------------|
|------------------------|
|------------------------|
|------------------------|
|-2--2--------2--2-------|
|-0--0--------0--0-------|

|-----------------|
|-----------------|
|-----------------|
|-----------------|
|-2--2-------2----|x4
|-0--0--1---------|
        "   "

Verse
|--------------------------------|  |--------------------------------|
|--------------------------------|  |--------------------------------|
|--------------------------------|  |--------------------------------|
|--------------------------------|  |--------------------------------|
|-------------2--------------3---|x3|-------------2----------2-------|
|-0-------1-------0------1-------|  |-0-------1-------0----------1---|
  "       "   "   "      "   "        "       "   "   "      "   "

|--------------------------------|  |--------------------------------|
|--------------------------------|  |--------------------------------|
|--------------------------------|  |--------------------------------|
|--------------------------------|  |--------------------------------|
|-------------2--------------3---|x3|-------------2----------2-------|
|-0-------1-------0------1-------|  |-0-------1-------0----------1---|
  "       "   "   "      "   "        "       "   "   "      "   "

**
|--------------------------------------------------------|
|--------------------------------------------------------|
|--------------------------------------------------------|
|--------------------------------------------------------|
|-4-4--44444--4--6--7--6--4--3-3--3-3-3--3-3-3--3-3-3--3-|
|-2-2--22222--2--4--5--4--2--1-1--1-1-1--1-1-1--1-1-1--1-|
       .....
|--------------------------------------------------------|
|--------------------------------------------------------|
|--------------------------------------------------------|
|----------------------------5-5--5-5-5--5-5-5--5-5-5--5-|
|-4-4--44444--4--6--7--6--4--3-3--3-3-3--3-3-3--3-3-3--3-|x2 Since **
|-2-2--22222--2--4--5--4--2------------------------------|
       .....

|---------------------------|
|---------------------------|
|---------------------------|
|-6-6--6-6-6--6-6-6--6-6-6--|
|-4-4--4-4-4--4-4-4--4-4-4--|
|---------------------------|

|-----------------------------------------|
|-----------------------------------------|
|-----------------------------------------|
|-----------------------------------------|
|-2--------------------2------------------|
|-0--------------------0------------------|

|-----------------------------------------------------------------|
|-----------------------------------------------------------------|
|-----------------------------------------------------------------|
|---------------------10----9-------------------------8-----7-----|
|-2-------9-----8-----8-----7-----2-------9-----8-----6-----5-----|x4
|-0-------7-----6-----------------0-------7-----6-----------------|


|-------------------------------------------------------------------------|
|-------------------------------------------------------------------------|
|-------------------------------------------------------------------------|
|-------------------------------------------------------------------------|
|-------------------------8-8-8-7-7-7-------------------------6-6-6-5-5-5-|x4
|-0-0-0-0-0-0-7-7-7-6-6-6-------------0-0-0-0-0-0-7-7-7-6-6-6-------------|
  . . . . . . . . . . . . . . . . . . . . . . . . . . . . . . . . . . . .

|-----------------------------------------------------------------|
|-----------------------------------------------------------------|
|-----------------------------------------------------------------|
|---------------------10----9-------------------------8-----7-----|
|-2-------9-----8-----8-----7-----2-------9-----8-----6-----5-----|x4
|-0-------7-----6-----------------0-------7-----6-----------------|

|------------------------|
|------------------------|
|------------------------|
|------------------------|
|-2--2--------2--2-------|
|-0--0--------0--0-------|

|-----------------|
|-----------------|
|-----------------|
|-----------------|
|-2--2-------2----|x4
|-0--0--1---------|
        "   "

Verse
|--------------------------------|  |--------------------------------|
|--------------------------------|  |--------------------------------|
|--------------------------------|  |--------------------------------|
|--------------------------------|  |--------------------------------|
|-------------2--------------3---|x3|-------------2----------2-------|
|-0-------1-------0------1-------|  |-0-------1-------0----------1---|
  "       "   "   "      "   "        "       "   "   "      "   "

|--------------------------------|  |--------------------------------|
|--------------------------------|  |--------------------------------|
|--------------------------------|  |--------------------------------|
|--------------------------------|  |--------------------------------|
|-------------2--------------3---|x3|-------------2----------2-------|
|-0-------1-------0------1-------|  |-0-------1-------0----------1---|
  "       "   "   "      "   "        "       "   "   "      "   "

|-------------------------------------------------|
|-------------------------------------------------|
|-------------------------------------------------|
|-------------------------------------------------|
|-6--7--6--4--6--7--6--4--6--7--6--4--6--7--6--4--|x8
|-4--5--4--2--4--5--4--2--4--5--4--2--4--5--4--2--|

|----|
|----|
|----|
|----|
|-3--|
|-1--|


END
Tap to rate this tab
# A B C D E F G H I J K L M N O P Q R S T U V W X Y Z