Song name
# A B C D E F G H I J K L M N O P Q R S T U V W X Y Z

Machetazo - Momificados Para La Inmortalidad tab

Band:  Machetazo
Album: Sinfonias Del Terror Ciego
Song:  Momificados Para La Immortalidad

Transcribed By: Pablo1349


.  - palm mute           /  - slide up to
\  - slide down to       ~  - vibrato
h  - hammer on           b  - Bend
p  - pull off            Suffixes for bend
t  - tap                 f  - full bend    h - half bend
ph - pinched harmonic    q  - quarter bend t - tap bend
*  - see comment         ^  - Hold bend    r release bend
x  - Stuccatto           ~  - vibrato bend
,  - slight palm mute    () - ghost note, sustained note
"  - tremolo note        <> - Trill

Tuning B E A D F# B

Fast

Guit. 1
|------------------------------------------------------------------|
|------------------------------------------------------------------|
|------------------------------------------------------------------|
|---------3-3-3-3--------------------------------------------------|
|-5-5--5--1-1-1-1------3-3-2-2-4-4-----4-4-3-3-5-5-----3-3-2-2-4-4-|
|-3-3--3----------2-2-------------3-3--------------2-2-------------|

Guit. 2
|------------------------------------------------------------------|
|------------------------------------------------------------------|
|------------------------------------------------------------------|
|---------3-3-3-3--------------------------------------------------|
|-5-5--5--1-1-1-1-4------------------------------------------------|
|-3-3--3----------2------------------------------------------------|


Both Guitars
|------------------------------------------------------------------|
|------------------------------------------------------------------|
|------------------------------------------------------------------|
|---------3-3-3-3--------------------------------------------------|
|-5-5--5--1-1-1-1------3-3-2-2-4-4-----4-4-3-3-5-5-----3-3-2-2-4-4-|x5
|-3-3--3----------2-2-------------3-3--------------2-2-------------|


|-----------------|
|-----------------|
|-----------------|
|---------3-3-3-3-|
|-5-5-5-5-1-1-1-1-|
|-3-3-3-3---------|

|-------------------------|
|-------------------------|
|-------------------------|
|-5-5-3-3-7-7-5-5-10107-7-|
|-3-3-1-1-5-5-3-3-8-8-5-5-|x3
|-------------------------|

|------------------------|-----------|------------------------|-----------|
|------------------------|-----------|------------------------|-----------|
|------------------------|-----------|------------------------|-----------|
|------------------------|-----------|------------------------|-----------|
|-5----3----7----5----2--|-Bass Fill-|-5----3----7----5----2--|-Bass Fill-|
|-3----1----5----3----0--|-----------|-3----1----5----3----0--|-----------|


|---------------------------------------------------------------|
|---------------------------------------------------------------|
|---------------------------------------------------------------|
|---------------------------------------------------------------|
|-5-5-3-3-7-7-5-5-2-2---2-2-2---2-2-2---2-2-2---2-2-2---2-2-2---|x4
|-3-3-1-1-5-5-3-3-0-0---0-0-0---0-0-0---0-0-0---0-0-0---0-0-0---|


|-------------------|
|-------------------|
|-------------------|
|-------------------|
|-5----3----7----5--|
|-3----1----5----3--|

|-------------------------------------------------------------|
|-------------------------------------------------------------|
|-------------------------------------------------------------|
|-------------------------------------------------6---7---8---|
|-7---5---7---8---7---5---7---8---7---5---7---8---------------|x2
|-------------------------------------------------------------|
  "   "   "   "   "   "   "   "   "   "   "   "   "   "   "

|----------------------------------------------|
|----------------------------------------------|
|----------------------------------------------|
|----------13-13-13-13------------10--9--------|
|-10101010-11-11-11-11-109-9-9-9--8---7---11---|x2
|-8-8-8-8--------------8-7-7-7-7----------9----|

|-------------------------------------------------------------|
|-------------------------------------------------------------|
|-------------------------------------------------------------|
|-------------------------------------------------6---7---8---|
|-7---5---7---8---7---5---7---8---7---5---7---8---------------|x2
|-------------------------------------------------------------|
  "   "   "   "   "   "   "   "   "   "   "   "   "   "   "

|----------------------------------------------|
|----------------------------------------------|
|----------------------------------------------|
|----------13-13-13-13------------10--9--------|
|-10101010-11-11-11-11-109-9-9-9--8---7---11---|x2
|-8-8-8-8--------------8-7-7-7-7----------9----|


Guit. 1
|------------------------------------------------------------------|
|------------------------------------------------------------------|
|------------------------------------------------------------------|
|---------3-3-3-3--------------------------------------------------|
|-5-5--5--1-1-1-1------3-3-2-2-4-4-----4-4-3-3-5-5-----3-3-2-2-4-4-|
|-3-3--3----------2-2-------------3-3--------------2-2-------------|

Guit. 2
|------------------------------------------------------------------|
|------------------------------------------------------------------|
|------------------------------------------------------------------|
|---------3-3-3-3--------------------------------------------------|
|-5-5--5--1-1-1-1-4------------------------------------------------|
|-3-3--3----------2------------------------------------------------|



Both Guitars
|------------------------------------------------------------------|
|------------------------------------------------------------------|
|------------------------------------------------------------------|
|---------3-3-3-3--------------------------------------------------|
|-5-5--5--1-1-1-1------3-3-2-2-4-4-----4-4-3-3-5-5-----3-3-2-2-4-4-|x5
|-3-3--3----------2-2-------------3-3--------------2-2-------------|


|-----------------|
|-----------------|
|-----------------|
|---------3-3-3-3-|
|-5-5-5-5-1-1-1-1-|
|-3-3-3-3---------|


|----------------------|
|----------------------|
|----------------------|
|----------------------|
|-5----3----7----5--2--|
|-3----1----5----3--0--|



END
Tap to rate this tab
# A B C D E F G H I J K L M N O P Q R S T U V W X Y Z