Song name
# A B C D E F G H I J K L M N O P Q R S T U V W X Y Z

Machetazo - Maruta tab

Band: Machetazo
Album: The Maggot Sessions
Song: Maruta

Transcribed By: Pablo1349


.  - palm mute           /  - slide up to
\  - slide down to       ~  - vibrato
h  - hammer on           b  - Bend
p  - pull off            Suffixes for bend
t  - tap                 f  - full bend    h - half bend
ph - pinched harmonic    q  - quarter bend t - tap bend
*  - see comment         ^  - Hold bend    r release bend
x  - Stuccatto           ~  - vibrato bend
,  - slight palm mute    () - ghost note, sustained note
"  - tremolo note        <> - Trill

Tuning E A D G B E

|-------------------------------------|
|-------------------------------------|
|-------------------------------------|
|-4--------5-----------------3--------|
|-2--------3--------3--------1--------|x6
|-------------------1-----------------|
  "        "        "        "

|-------------------------------------------------------|
|-------------------------------------------------------|
|-------------------------------------------------------|
|-------------------------------------------------------|
|-2------3---2------------2------3---2--3-3-3-3-3-3-3-3-|x4
|-0------1---0----1-3-1-3-0------1---0--1-1-1-1-1-1-1-1-|
                  . . . .               . . . . . . . .

|-------------------------------------|
|-------------------------------------|
|-------------------------------------|
|-4--------5-----------------3--------|
|-2--------3--------3--------1--------|x4
|-------------------1-----------------|
  "        "        "        "
|-------------------------------------------------------|
|-------------------------------------------------------|
|-------------------------------------------------------|
|-------------------------------------------------------|
|-2------3---2------------2------3---2--3-3-3-3-3-3-3-3-|x4
|-0------1---0----1-3-1-3-0------1---0--1-1-1-1-1-1-1-1-|
                  . . . .               . . . . . . . .


|---------------------------------|
|---------------------------------|
|---------------------------------|
|---------------------------------|
|---------------------------------|
|-0-3-2-1-0-3-2-1-0-3-2-1-0-3-2-1-|
  . . . . . . . . . . . . . . . .

|---------------------------------|
|---------------------------------|
|---------------------------------|
|---------------------------------|
|---------------------------------|
|-0-3-2-1-0-3-2-1-0-3-2-1-0-3-2-1-|

|---------------------------|
|---------------------------|
|---------------------------|
|-2---3--5--6--2---3--5--6--|
|-0---1--3--4--0---1--3--4--|

|----------------------------------------------------|
|----------------------------------------------------|
|----------------------------------------------------|
|----------------------------------------------------|
|-2---3--5--6--2---3--5--6--2---3--5--6--2--3--3--3--|x4
|-0---1--3--4--0---1--3--4--0---1--3--4--0--1--1--1--|
                                            .  .  .
|-------------------------------------|
|-------------------------------------|
|-------------------------------------|
|-4--------5-----------------3--------|
|-2--------3--------3--------1--------|x4
|-------------------1-----------------|
  "        "        "        "

|-------------------------------------------------------|
|-------------------------------------------------------|
|-------------------------------------------------------|
|-------------------------------------------------------|
|-2------3---2------------2------3---2--3-3-3-3-3-3-3-3-|x4
|-0------1---0----1-3-1-3-0------1---0--1-1-1-1-1-1-1-1-|
                  . . . .               . . . . . . . .

|----------------------------------------------------------|
|----------------------------------------------------------|
|----------------------------------------------------------|
|---------------------------0-----2--0----2-2--2-----------|
|-2------0--2--3------2--3------------------------3--2--0--|
|-0--------------------------------------------------------|

|----------------------------------------------------------|
|----------------------------------------------------------|
|----------------------------------------------------------|
|---------------------------0-----2--0----2-2--2-----------|
|-2------0--2--3------2--3------------------------3--2--0--|x2
|----------------------------------------------------------|

|--------------------------------------------|
|--------------------------------------------|
|--------------------------------------------|
|--------------------------------------------|
|-2------0--2--3------0h2h3--2--------2------|
|-0-----------------------------3--2--0------|


END
Tap to rate this tab
# A B C D E F G H I J K L M N O P Q R S T U V W X Y Z