Song name
# A B C D E F G H I J K L M N O P Q R S T U V W X Y Z

Machetazo - Marcha De Los Muertos Sin Ojos tab

Band:  Machetazo
Album: Sinfonias Del Terror Ciego
Song:  MArcha De Los Muertos Sin Ojo

Transcribed By: Pablo1349


.  - palm mute           /  - slide up to
\  - slide down to       ~  - vibrato
h  - hammer on           b  - Bend
p  - pull off            Suffixes for bend
t  - tap                 f  - full bend    h - half bend
ph - pinched harmonic    q  - quarter bend t - tap bend
*  - see comment         ^  - Hold bend    r release bend
x  - Stuccatto           ~  - vibrato bend
,  - slight palm mute    () - ghost note, sustained note
"  - tremolo note        <> - Trill

Tuning B E A D F# B


Fade In
|--------------------------------------------------------------------|
|--------------------------------------------------------------------|
|--------------------------------------------------------------------|
|------------------------------4-5-------------------------------5-4-|
|-4-445-444-445-444-445-444-44-2-3--4-445-444-445-444-445-444-44-3-2-|
|-2-223-222-223-222-223-222-22------2-223-222-223-222-223-222-22-----|
  . ... ... ... ... ... ... ..      . ... ... ... ... ... ... ..


|---------------------------------|
|---------------------------------|
|---------------------------------|
|---------3-------7-------10--999-|
|-5-------1-------5-------8---777-|
|-3-------------------------------|
  "       "       "       "    Not a very fast tremolo picking here

|--------------------------------------------------------------------|
|--------------------------------------------------------------------|
|--------------------------------------------------------------------|
|------------------------------4-5-------------------------------5-4-|
|-4-445-444-445-444-445-444-44-2-3--4-445-444-445-444-445-444-44-3-2-|x2
|-2-223-222-223-222-223-222-22------2-223-222-223-222-223-222-22-----|
  . ... ... ... ... ... ... ..      . ... ... ... ... ... ... ..


|---------------------------------|
|---------------------------------|
|---------------------------------|
|---------3-------7-------10--999-|
|-5-------1-------5-------8---777-|
|-3-------------------------------|
  "       "       "       "    Not a very fast tremolo picking here

**
|----------------------------------------------------------------------|
|----------------------------------------------------------------------|
|----------------------------------------------------------------------|
|------------------4----------------------4----------------------4-----|
|-4----------------2--5--4----------------2--5--4----------------2--5--|
|-2--22222222222------3--2--22222222222------3--2--22222222222------3--|
     ...........            ...........            ...........

|------------------|
|------------------|
|------------------|
|------------------|
|-7777777755555555-|x2  Repeat From "**"
|-5555555533333333-|

|--------------------------------------------------------------------|
|--------------------------------------------------------------------|
|--------------------------------------------------------------------|
|------------------------------4-5-------------------------------5-4-|
|-4-445-444-445-444-445-444-44-2-3--4-445-444-445-444-445-444-44-3-2-|x2
|-2-223-222-223-222-223-222-22------2-223-222-223-222-223-222-22-----|
  . ... ... ... ... ... ... ..      . ... ... ... ... ... ... ..


|---------------------------------|
|---------------------------------|
|---------------------------------|
|---------3-------7-------10--999-|
|-5-------1-------5-------8---777-|
|-3-------------------------------|
  "       "       "       "    Not a very fast tremolo picking here

**
|----------------------------------------------------------------------|
|----------------------------------------------------------------------|
|----------------------------------------------------------------------|
|------------------4----------------------4----------------------4-----|
|-4----------------2--5--4----------------2--5--4----------------2--5--|
|-2--22222222222------3--2--22222222222------3--2--22222222222------3--|
     ...........            ...........            ...........

|------------------|
|------------------|
|------------------|
|------------------|
|-7777777755555555-|x2 Repeat From "**"
|-5555555533333333-|


|--------------------------------------------------------------------|
|--------------------------------------------------------------------|
|--------------------------------------------------------------------|
|------------------------------4-5-------------------------------5-4-|
|-4-445-444-445-444-445-444-44-2-3--4-445-444-445-444-445-444-44-3-2-|x2
|-2-223-222-223-222-223-222-22------2-223-222-223-222-223-222-22-----|
  . ... ... ... ... ... ... ..      . ... ... ... ... ... ... ..


|---------------------------------|
|---------------------------------|
|---------------------------------|
|---------3-------7-------10--999-|
|-5-------1-------5-------8---777-|
|-3-------------------------------|
  "       "       "       "

|-----------------------------------|
|-----------------------------------|
|-----------------------------------|
|-9-------12------16------19--18----|
|-7-------10------14------17--16----|
|-----------------------------------|
  "       "        "      "

END
Tap to rate this tab
# A B C D E F G H I J K L M N O P Q R S T U V W X Y Z