Song name
# A B C D E F G H I J K L M N O P Q R S T U V W X Y Z

Machetazo - Banquete Funerario tab

Band: Machetazo
Album: Trono De Huesos
Song: Banquete Funerario

Transcribed By:Pablo1349

.  - palm mute           /  - slide up to
\  - slide down to       ~  - vibrato
h  - hammer on           b  - Bend
p  - pull off            Suffixes for bend
t  - tap                 f  - full bend    h - half bend
ph - pinched harmonic    q  - quarter bend t - tap bend
*  - see comment         ^  - Hold bend    r release bend
x  - Stuccatto           ~  - vibrato bend
,  - slight palm mute    () - ghost note, sustained note
"  - tremolo note        <> - Trill

Tuning B E A D F# B

|-----------------------------------------|
|-----------------------------------------|
|-----------------------------------------|
|-----------------------------------------|
|------0----6----7----6----0----6----0----|x4
|-0---------------------------------------|
  "    "    "    "    "    "    "    "

|------------------------------------|
|------------------------------------|
|------------------------------------|
|------------------------------------|
|-2-2----2-2-2----2-2-2----2-2-8----8|x4
|-0-0----0-0-0----0-0-0----0-0-6----6|


|-----------------------------------------|
|-----------------------------------------|
|-----------------------------------------|
|-----------------------------------------|
|------0----6----7----6----0----6----0----|x4
|-0---------------------------------------|
  "    "    "    "    "    "    "    "

|------------------------------------|
|------------------------------------|
|------------------------------------|
|------------------------------------|
|-2-2----2-2-2----2-2-2----2-2-8----8|x4
|-0-0----0-0-0----0-0-0----0-0-6----6|


|-----------------------------------------|
|-----------------------------------------|
|-----------------------------------------|
|-----------------------------------------|
|------0----6----7----6----0----6----0----|x4
|-0---------------------------------------|
  "    "    "    "    "    "    "    "

|------------------------------------|
|------------------------------------|
|------------------------------------|
|------------------------------------|
|-2-2----2-2-2----2-2-2----2-2-8----8|x4
|-0-0----0-0-0----0-0-0----0-0-6----6|


|-----------------------------------------|
|-----------------------------------------|
|-----------------------------------------|
|-----------------------------------------|
|------0----6----7----6----0----6----0----|x4
|-0---------------------------------------|
  "    "    "    "    "    "    "    "

|-----------------------------------------|
|-----------------------------------------|
|-----------------------------------------|
|------2----8----9----8----2----8----2----|
|-2----0----6----7----6----0----6----0----|x4
|-0---------------------------------------|


|----------------------------------------|
|----------------------------------------|
|----------------------------------------|
|------------3---4-----------------------|
|-2----------1---2--2--------------------|x4
|-0--00000000--0----0--00000000-1--3--4~-|
     ........  .       ........       Wide vibrato

|--------------------------------------|
|--------------------------------------|
|--------------------------------------|
|--------------------------------------|
|-2---2---3-5-6-5--2---2---6--5--3--5--|x2
|-0-000-001-3-4-3--0-000-004--3--1--3--|
    ...  ..          ... ..

|-----------------------------------------|
|-----------------------------------------|
|-----------------------------------------|
|-----------------------------------------|
|------0----6----7----6----0----6----0----|x4
|-0---------------------------------------|
  "    "    "    "    "    "    "    "

|------------------------------------|
|------------------------------------|
|------------------------------------|
|------------------------------------|
|-2-2----2-2-2----2-2-2----2-2-8----8|x4
|-0-0----0-0-0----0-0-0----0-0-6----6|

Bass Fill

|-----------------------------------------|
|-----------------------------------------|
|-----------------------------------------|
|-----------------------------------------|
|------0----6----7----6----0----6----0----|x8
|-0---------------------------------------|
  "    "    "    "    "    "    "    "



END
Tap to rate this tab
# A B C D E F G H I J K L M N O P Q R S T U V W X Y Z