Song name
# A B C D E F G H I J K L M N O P Q R S T U V W X Y Z

Machetazo - Adoremos Al Craneo Cornudo tab

Band:  Machetazo
Album: Sinfonias Del Terror Ciego
Song:  Adoremos Al Craneo Cornudo

Transcribed By: Pablo1349


.  - palm mute           /  - slide up to
\  - slide down to       ~  - vibrato
h  - hammer on           b  - Bend
p  - pull off            Suffixes for bend
t  - tap                 f  - full bend    h - half bend
ph - pinched harmonic    q  - quarter bend t - tap bend
*  - see comment         ^  - Hold bend    r release bend
x  - Stuccatto           ~  - vibrato bend
,  - slight palm mute    () - ghost note, sustained note
"  - tremolo note        <> - Trill

Tuning B E A D F# B

|-----------------|
|-----------------|
|-----------------|
|-----------------|
|-7---7-----6---6-|x8
|---5---5-4---4---|

|--------------------------|
|--------------------------|
|--------------------------|
|-5/4-5/4------------------|
|-3/2-3/2-5/4-5/4----------|x3
|---------3/2-3/2-0--------|
                  "
|-----------------------------|
|-----------------------------|
|-----------------------------|
|-5/4-5/4---------------------|
|-3/2-3/2-5/4-5/4-2--2--2--2--|
|---------3/2-3/2-0--0--0--0--|

|-----------------|
|-----------------|
|-----------------|
|-----------------|
|-7---7-----6---6-|x8
|---5---5-4---4---|

|--------------------------|
|--------------------------|
|--------------------------|
|-5/4-5/4------------------|
|-3/2-3/2-5/4-5/4----------|x3
|---------3/2-3/2-0--------|
                  "
|-----------------------------|
|-----------------------------|
|-----------------------------|
|-5/4-5/4---------------------|
|-3/2-3/2-5/4-5/4-2--2--2--2--|
|---------3/2-3/2-0--0--0--0--|

|-----------------|
|-----------------|
|-----------------|
|-----------------|
|-7---7-----6---6-|x4
|---5---5-4---4---|

|---|
|---|
|---|
|---|
|-7-|
|---|

END
Tap to rate this tab
 
# A B C D E F G H I J K L M N O P Q R S T U V W X Y Z