Song name
# A B C D E F G H I J K L M N O P Q R S T U V W X Y Z

Machetazo - Todos Somos Alimentos De Los Gusanos tab

Band:  Machetazo
Album: Carne De Cementerio
Song:(Todos Somos) Alimento De Los Gusanos

Transcribed By: Pablo1349



.  - palm mute           /  - slide up to
\  - slide down to       ~  - vibrato
h  - hammer on           b  - Bend
p  - pull off            Suffixes for bend
t  - tap                 f  - full bend    h - half bend
ph - pinched harmonic    q  - quarter bend t - tap bend
*  - see comment         ^  - Hold bend    r release bend
x  - Stuccatto           ~  - vibrato bend
,  - slight palm mute    () - ghost note, sustained note
"  - tremolo note        <> - Trill

Tuning B E A D F# B

|--------------------------------------------------------------|
|--------------------------------------------------------------|
|--------------------------------------------------------------|
|----------------------------------------------3-3-----2-2-----|
|-2-2-2-2-3/5\3--2-2-2-2-3/5\3--2-2-2-2-3/5\3--1-1-3-3-0-0-3-3-|x8
|-0-0-0-0-1/3\1--0-0-0-0-1/3\1--0-0-0-0-1/3\1------1-1-----1-1-|
  . . . .        . . . .        . . . .

|-----------------------|
|-----------------------|
|-----------------------|
|-----------------------|
|--------2--------3*----|x4 *In the last repeat, do a slow bend and don't play
|-0----0-----3--0-----3-|    The Last 6th string "3"

|--------------------------------------------------------------|
|--------------------------------------------------------------|
|--------------------------------------------------------------|
|----------------------------------------------3-3-----2-2-----|
|-2-2-2-2-3/5\3--2-2-2-2-3/5\3--2-2-2-2-3/5\3--1-1-3-3-0-0-3-3-|x4
|-0-0-0-0-1/3\1--0-0-0-0-1/3\1--0-0-0-0-1/3\1------1-1-----1-1-|
  . . . .        . . . .        . . . .


|--------------------------|
|--------------------------|
|--------------------------|
|--------------------------|
|-/7----7-5----2---1-0-----|x4
|------------------------3-|

|--------------------------|
|--------------------------|
|--------------------------|
|--9----9-7----4---3-2-----|x4 *The Same than the previous *
|-/7----7-5----2---1-0*--5-|
|------------------------3-|

|--------------------------------------------------------------|
|--------------------------------------------------------------|
|--------------------------------------------------------------|
|----------------------------------------------3-3-----2-2-----|
|-2-2-2-2-3/5\3--2-2-2-2-3/5\3--2-2-2-2-3/5\3--1-1-3-3-0-0-3-3-|x4
|-0-0-0-0-1/3\1--0-0-0-0-1/3\1--0-0-0-0-1/3\1------1-1-----1-1-|
  . . . .        . . . .        . . . .

|---|
|---|
|---|
|---|
|-2-|
|-0-|

END
Tap to rate this tab
# A B C D E F G H I J K L M N O P Q R S T U V W X Y Z