Guitaretab - guitar tabs
Song name
# A B C D E F G H I J K L M N O P Q R S T U V W X Y Z

Machine Go Boom - Kamikazi Plane tab

Song: Kamikazi Plane
Artist: Machine Go Boom
Album: Thank You Captain Obvious

E|---------------------------------------------------------------|
B|---------------------------------------------------------------|
G|---------------------------------------------------------------|
D|--5--X-5-5-5-X-5-5--X-5-5-5-5-5-9--X-9-9-9-X-9-5--X-5-5-5-5-5--|
A|--5--X-5-5-5-X-5-6--X-6-6-6-6-6-7--X-7-7-7-X-7-7--X-7-7-7-7-7--|
E|--3--X-3-3-3-X-3-3--X-3-3-3-3-3-0--X-0-0-0-X-0-0--X-0-0-0-0-0--|
[ Tab from: http://www.guitaretab.com/m/machine-go-boom/188573.html ]
E|---------------------------------------------------------------|
B|---------------------------------------------------------------|
G|--2--X-2-2-2-X-2-2--X-2-2-2-2-2-0--X-0-0-0-X-0-0--X-0-0-0-0-0--|
D|--2--X-2-2-2-X-2-0--X-0-0-0-0-0-2--X-2-2-2-X-2-1--X-1-1-1-1-1--|
A|--0--X-0-0-0-X-0-2--X-2-2-2-2-2-3--X-3-3-3-X-3-3--X-3-3-3-3-3--|
E|---------------------------------------------------------------|

It's pretty much just this the whole way through.

http://www.collectibleescalators.com/machinegoboom.htm