Song name
# A B C D E F G H I J K L M N O P Q R S T U V W X Y Z

Machine Head - Im Your God Now tab

drop b tuning

begins with bass intro and whammy bar harmonics
then clean
      x3
|------5------5---|------5-----------------------|
|--------5------6-|--------5---------------------|
|----------5------|----------5-------------------|
|-5h6-------------|-5h6------------8---7---5-----| play through 4 times (i think)
|-----------------|------------6\8---8---8---6-6-| 
|-----------------|------------------------------|

light distortion
|---------------|
|---------------|
|-12\14--14\15--|
|---------------| repeat this a number of times 
|-10\12--12\13--|
|---------------|

heavy with distortion
|---------------------------------|
|---------------------------------|
|---------------------------------| play 4 times
|-------------9----------9----9-9-|
|-6-0-6-0-6-0-9--6-0-8-0-9--9-9-9-| slightly palm mute all notes
|-6-0-6-0-6-0-9--6-0-8-0-9--9-9-9-|

heavy with distortion
|-----------------------------------------------------------|
|-----------------------------------------------------------|
|-----------------------------------------------------------|
|-----------------------------------------8-7~--------------|
|-6-8--8-6-6-8-7~--6-8--8-<8~>-6-8--8-6-6-------6-8--8-<8~>-|
|-6-8--8-6-6-------6-8--8------6-8--8-6-6-------6-8--8------|

          x2
|-----------------------------|
|-----------------------------|
|-----------------------------|
|-----------------------------|
|-6-8--8-6-6-7~--6-8--8-<8~>--|
|-6-8--8-6-6-----6-8--8-------|

|---------------|
|---------------|
|---------------|
|---------------| play this just before the clean part
|-6-6-6-6-6-6-6-|
|-6-6-6-6-6-6-6-|

play through again then

distortion
|----------|
|----------|
|----------|
|----------| repeat this 3 times (or maybe 4)
|-0-0-0-0--|
|-0-0-0-0--|

|------|
|------|
|------|
|-12/5-|
|-12/5-|
|-12/5-|

        x3           slight pinch on the notes at the end
|-------------------------------|--------------------------------|
|-------------------------------|--------------------------------|
|-------------------------------|--------------------------------|
|-------------------------------|------------------8---7---5-----|
|-8-0-0-0-6-8--8-00-8-6--8-6-0--|-8-0-0-0-6-8--6\8---8---8---6-6-| 
|-8-0-0-0-6-8--8-00-8-6--8-6-0--|-8-0-0-0-6-8--------------------|

i think thats mostly right so far... the last riff might be a bit off but it sounds close...

i dont know the solo so if anyone knows it can they leave a comment with it... 

Tap to rate this tab
# A B C D E F G H I J K L M N O P Q R S T U V W X Y Z