Song name
# A B C D E F G H I J K L M N O P Q R S T U V W X Y Z

Machine Head - The Burning Red tab

Riff 1
|---------------------------------------------------------|
|-------8------------8-------------5--------------5-------| 
|---------------------------------------------------------|       
|-----9------------7-------------5-------------4----------|       
|---7------------5-------------3-------------2------------|       
|---------------------------------------------------------|       
                                                                  
|-------------------------------------------------------------|   
|-------8------------8-------------5--------------5-------3---|   
|-------------------------------------------------------------|   
|-----9------------7-------------5-------------4--------------|
|---7------------5-------------3-------------2----------------|   
|-------------------------------------------------------------|

I see the sun begin to rise
And I'm blinded too
I've seen the world thru
Jaded eyes that I'm crying thru
I've watched the darkness hypnotize
And confided

Riff 2
|---------------------------------------------------------|
|---------------------------------------------------------|
|--888888888888888888888888888888888/1010101010/11111111--|
|--888888888888888888888888888888888/1010101010/11111111--|
|--666666666666666666666666666666666/8-8-8-8-8-/9-9-9-9---|
|---------------------------------------------------------|

Hold on i'm falling...cant breathe anyomore
an ocean has opened, these scars need to heal over

Riff 1
|---------------------------------------------------------|
|-------8------------8-------------5--------------5-------| 
|---------------------------------------------------------|       
|-----9------------7-------------5-------------4----------|       
|---7------------5-------------3-------------2------------|       
|---------------------------------------------------------|       
                                                                  
|-------------------------------------------------------------|   
|-------8------------8-------------5--------------5-------3---|   
|-------------------------------------------------------------|   
|-----9------------7-------------5-------------4--------------|
|---7------------5-------------3-------------2----------------|   
|-------------------------------------------------------------|

Caress the needle prick in my skin
The tears fell like rain
I've rode the Phoenix as she glides
And I've gone insane
I've seen the light of suicide
And I'm dying

Riff 2
|---------------------------------------------------------|
|---------------------------------------------------------|
|--888888888888888888888888888888888/1010101010/11111111--|
|--888888888888888888888888888888888/1010101010/11111111--|
|--666666666666666666666666666666666/8-8-8-8-8-/9-9-9-9---|
|---------------------------------------------------------|

Hold on i'm falling...cant breathe anyomore
an ocean has opened, these scars need to heal over

Riff 3

|-------------------------------------------------|
|-------------------------------------------------|
|-------------------------------------------------|
|-------11-----------9-----------7------------6---|
|-------11-----------9-----------7------------6---|
|-------11-----------9-----------7------------6---|

Colder and colder, Just hold onto me 

Riff 4
|---------------10---7---8---7----5---3----7----3----0--|
|---5---7---8-------------------------------------------|
|-------------------------------------------------------|
|-------------------------------------------------------|
|-------------------------------------------------------|
|-------------------------------------------------------|
woo woo woooo, woo woo woooo ect

Well thats what i came up with please rate this tab
Thanks 
Tap to rate this tab
 
# A B C D E F G H I J K L M N O P Q R S T U V W X Y Z