Guitaretab - guitar tabs
Song name
# A B C D E F G H I J K L M N O P Q R S T U V W X Y Z

Machine Head - Message In A Bottle tab

Message in a Bottle
Machine Head
Tuning: standard e
                 B
		 G
		 D
		 A
		 E
Intro + Verse:
Clean With Wah Effect:
e|-------------------------------------------------------------------------|
B|-------------------------------------------------------------------------|
G|-------8--------4----------6---------------------------------------------|
D|----6--------2---------4-------------6/7---------------------------------|
A|-4--------0--------2--------------4--------------------------------------|
E|-------------------------------2-----------------------------------------|x8

Then:
e|-------------------------------------------------------------------------|
B|-------------------------------------------------------------------------|
G|--------8-------4---4~~~~------------------------------------------------|
D|-----6--------2-----2~~~~------------------------------------------------|
A|--4--------0--------0~~~~------------------------------------------------|
E|-------------------------------------------------------------------------|

Bridge:
Clean, No Effect:
e|-------------------------------------------------------------------------|
B|-------------------------------------------------------------------------|
G|--------------------7-7-7-7-9-9-9-9--------------------------------------|
D|----7-7-7-7-7-7-7-7-7-7-7-7-9-9-9-9--------------------------------------|
A|----7-7-7-7-7-7-7-7-5-5-5-5-7-7-7-7--------------------------------------|
E|----5-5-5-5-5-5-5-5------------------------------------------------------|
PM. . . . . . . . . . . . . . . . . . . . . . .

Bridge - continued
Light Distortion:
e|-------------------------------------------------------------------------|
B|-------------------------------------------------------------------------|
G|-------------------------------------------------------------------------|
D|-----4-4-4-4-4-4-4-4-7-7-7-7-7-7-7-7-------------------------------------|
A|-----4-4-4-4-4-4-4-4-7-7-7-7-7-7-7-7-------------------------------------|
E|-----2-2-2-2-2-2-2-2-5-5-5-5-5-5-5-5ó------------------------------------|
PM. . . . . . . . . . . . . . . . . . . . . . . . .
[ Tab from: http://www.guitaretab.com/m/machine-head/119075.html ]
Pre Chorus
With Wah Effect:
e|--------------------------------------------------------------------------|
B|------5~~~-------5~~~------5~~~-------------------------------------------|
G|------6~~~-6~~~--6~~~-6~~~-6~~~-6~~~-3~~~---------------------------------|
D|------6~~~-7~~~--6~~~-7~~~-6~~~-7~~~-4~~~---------------------------------|
A|------4~~~-7~~~--4~~~-7~~~-4~~~-7~~~-4~~~---------------------------------|
E|-----------5~~~-------5~~~------5~~~-2~~~---------------------------------|

Chorus
Same as the Intro riff but faster this time, just distortion, no wah.
e|--------------------------------------------------------------------------|
B|--------------------------------------------------------------------------|
G|--------8--------4--------6-----------------------------------------------|
D|-----6--------2--------4-----------6/7------------------------------------|
A|--4--------0--------2-----------4-----------------------------------------|
E|-----------------------------2--------------------------------------------|x8


With Wah Effect
e|-------------------------------------------------------------------------|
B|------5~~~-------5~~~------5~~~------------------------------------------|
G|------6~~~-6~~~--6~~~-6~~~-6~~~-6~~~-3~~~--------------------------------|
D|------6~~~-7~~~--6~~~-7~~~-6~~~-7~~~-4~~~--------------------------------|
A|------4~~~-7~~~--4~~~-7~~~-4~~~-7~~~-4~~~--------------------------------|
E|-----------5~~~-------5~~~------5~~~-2~~~--------------------------------|

Outro
e|-------------------------------------------------------------------------|
B|-------------------------------------------------------------------------|
G|--------8--------4--------6----------------------------------------------|
D|-----6--------2--------4-----------6/7-----------------------------------|
A|--4--------0--------2-----------4----------------------------------------|
E|-----------------------------2-------------------------------------------|x13

| /  slide up
| \  slide down
| PM. . . . .  Palm Mute

Lyrics:
Just a castaway
An island lost at sea
Another lonely day
With no one here but me
More loneliness
Than any man could bear
Rescue me before I fall into despair

I'll send an SOS to the world
I'll send an SOS to the world
I hope that someone gets my
I hope that someone gets my
I hope that someone gets my
Message in a bottle
Message in a bottle

A year has passed since I wrote my note
But I should have known this right from the start
Only hope can keep us together
Love can mend your life
But love can break your heart

I'll send an SOS to the world
I'll send an SOS to the world
I hope that someone gets my
I hope that someone gets my
I hope that someone gets my
Message in a bottle
Message in a bottle
{screams}

Iím sending out an S.O.S {x8}
Related for Message In A Bottle tab