Song name
# A B C D E F G H I J K L M N O P Q R S T U V W X Y Z

Machine Head - Buring Red tab

This song IS playable in drop C, so that's how I've tabbed it. Figuring it out in 
other tunings is no issue.


Intro / Verse
D|-----------|----------|----------|----------|
A|-------10--|------10--|-------7--|-------7--|
F|-----------|----------|----------|----------|
C|----11-----|----9-----|----7-----|----6-----|
G|--9--------|--7-------|--5-------|--4-------|
C|-----------|----------|----------|----------|

Chorus
D|------|------|------|------|
A|------|------|------|------|
F|--8---|--6---|--4---|--3---|
C|--8---|--6---|--4---|--3---|
G|--6---|--4---|--2---|--1---|
C|------|------|------|------| 

And I think guitar 2 does something like :
D|------|
A|------|
F|------|     Or something like that, not too sure.
C|--8b--|
G|------|
C|------|

Bridge
D|------|------|------|------|
A|------|------|------|------|
F|------|--3---|--4---|--6---|
C|--6---|--3---|--4---|--6---|
G|--6---|--1---|--2---|--4---|
C|--6---|------|------|------|

For the "ooh" part just play the chorus.

End on :
D|------|            D|------|
A|------|            A|------|
F|--8---|            F|------|
C|--8---|            C|------|
G|--6---|            G|--6---|
C|------|   and bend C|------|

That's it really :)  first tab so it's a bit rushed, let me know what you think! Thanks, J-Rob. 
Tap to rate this tab
 
# A B C D E F G H I J K L M N O P Q R S T U V W X Y Z