Guitaretab - guitar tabs
Song name
# A B C D E F G H I J K L M N O P Q R S T U V W X Y Z

Machine Head - Death Church tab

----------------------------------------------------------------------------
	            Death church-Machine Head
----------------------------------------------------------------------------
Tabbed by: Joel Keane
Email:

Tuning: Drop c#
whole guitar down a half step
D#
A#
F#
C#
G#
C#
Intro with the bass
guitar 1 - repeat
e|---------------------------------------------------------------------------|
B|14b15-14b15-14b15--14b15-14b15-14b15--14b15-14b15-14b15--14b15-14b15-14b15-|
G|---------------------------------------------------------------------------|
D|---------------------------------------------------------------------------|
A|---------------------------------------------------------------------------|
D|---------------------------------------------------------------------------|
second time thru g2 joins in
guitar 2
e|---------------------------------------------------------------------------|
B|---------------------------------------------------------------------------|
G|---------------------------------------------------------------------------|
D|---------------------------------------------------12-11-12-11-12-11-12-13-|
A|---------------------------------------------------------------------------|
D|---------------------------------------------------------------------------|
guitar 2                                                                 x2
e|---------------------------------------------------------------------------|
B|---------------------------------------------------------------------------|
G|---------------------------------------------------------------------------|
D|-12-11-12-11-12-11-12-13--12-11-12-11-12-11-12-13--12-11-12-11-15-15-15-15-|
A|---------------------------------------------------------------------------|
D|---------------------------------------------------------------------------|

guitar 1 on second time                                 pick scrape
e|--------------------------------------------------------------------------|
B|--------------------------------------------------------------------------|
G|--------------------------------------------------------------------------|
D|--------------------------------------------------------------------3-----|
A|------------------------------------------------------------X\--3-0-3-----|
D|------------------------------------------------------------X\--3-0-3-----|
          Both guitars- main/ pre verse riff
e|-------[------------------------------------------------------------------|
B|-------[------------------------------------------------------------------|
G|-------[------------------------------------------------------------------|
D|-----3-[------------------------------------------------------------------|
A|-----3-[-0-6-00-6-0--0--0-0-6-0--0--0-0-6-0--0-6-0-------5h6p5h6----------|
D|-3-3-3-[-0-6-00-6-0-00-00-0-6-0-00-00-0-6-0-00-----0-5-6------------------|
  pm--                -  -        -  -        -

e|--------------------------------------------------------|
B|--------------------------------------------------------|
G|--------------------------------------------------------|
D|--------------------------------------------------------|
A|--0-6-00-6-0--0--0-0-6-0--0--0-0-6-0--0-----------------|
D|--0-6-00-6-0-00-00-0-6-0-00-00-0-6-0-00--0-1-3-3~-1-3---|
               -  -        -  -        -
verse
e|------------------------------------------------------|
B|------------------------------------------------------|
G|------------------------------------------------------|
D|------------------------------------------------------|
A|--0-6-00-6-0---------------------6-0-------5h6p5h6----|
D|--0-6-00-6-0-0000000000000000000-----0-5-6------------|
               pm---------------------------------------|
[ Tab from: http://www.guitaretab.com/m/machine-head/266428.html ]
e|------------------------------------------------------|
B|------------------------------------------------------|
G|------------------------------------------------------|
D|------------------------------------------------------|
A|--0-6-00-6-0------------------------------------------|
D|--0-6-00-6-0-0000000000000000000-0-1-3-3~-1-3---------|
               pm---------------------------------------|
chorus
guitar 1
e|---------------------------------------------------------------------------|
B|---------------------------------------------------------------------------|
G|---------------------------------------------------------------------------|
D|-12-11-12-11-12-11-12-13--12-11-12-11-12-11-12-13--12-11-12-11-12-11-12-13-|
A|---------------------------------------------------------------------------|
D|---------------------------------------------------------------------------|
guitar2
e|---------------------------------------------------------------------------|
B|---------------------------------------------------------------------------|
G|---------------------------------------------------------------------------|
D|-0------------------------0------------------------0-----------------------|
A|-0------------------------0------------------------0-----------------------|
D|-0-------------------1111-0-------------------1111-0-------------------111-|
                       pm--                     ----                     ----|

guitar 1
e|---------------------------------------------------------------------------|
B|---------------------------------------------------------------------------|
G|---------------------------------------------------------------------------|
D|-12-11-12-11-15-15-15-15--12-11-12-11-12-11-12-13--12-11-12-11-12-11-12-13-|
A|---------------------------------------------------------------------------|
D|---------------------------------------------------------------------------|
guitar 2
e|---------------------------------------------------------------------------|
B|---------------------------------------------------------------------------|
G|---------------------------------------------------------------------------|
D|--3----------------------0-----------------------0-------------------------|
A|--3--------------------3-0-----------------------0-------------------------|
D|1-3-------------1-3~-1-3-0------------------1111-0--------------------1111-|
pm-                                           ----                      -----|
guitar 1
e|---------------------------------------------------|
B|---------------------------------------------------|
G|---------------------------------------------------|
D|-12-11-12-11-12-11-12-13--x\------3-------3--------|
A|------------------------------3-0-3-------3--------|
D|------------------------------3-0-3----33-3--------|
                                         --
guitar 2
e|----------------------------------------------------|
B|----------------------------------------------------|
G|----------------------------------------------------|
D|-0--------------------------------3-------3---------|
A|-0----------------------------3-0-3-------3---------|
D|-0----------------------1111--3-0-3----33-3---------|
                          ----           -------------|
After 2nd verse and chorus theres a solo breakdown
e|--------------------------------------------------------------------------|
B|--------------------------------------------------------------------------|
G|--------------------------------------------------------------------------|
D|--0-------------------------------------0---------------------------------|
A|--0----------------6-0-------5h6p5h6----0---------------------------------|
D|--0--------------------0-5-6------------0--------------0-1-3-3~-1-3-------|

Thats basically it, one more version of the main riff in the outro
im sure you'll work it out
***********************************

| /   slide up
| \   slide down
| h   hammer-on
| p   pull-off
| ~   vibrato
| +   harmonic
| x   Mute note
| b   Bend
| pb  Pre-bend
| br  Bend release
| pbr Pre-bend release
| brb Bend release bend

************************************
Related for Death Church tab
Death Church chords by Machine Head