Song name
# A B C D E F G H I J K L M N O P Q R S T U V W X Y Z

Machine Head - Davidian tab

----------------------------------------------------------------------------
			     davidian-Machine head
----------------------------------------------------------------------------
Tabbed by: Joel Keane(jk41)
Email:

Tuning:drop c#
Intro- Natural harmonics+
      + +           + +             + +          + +
e|---------------------------------------------------------------------------|
B|---------------------------------------------------------------------------|
G|---------------------------------------------------------------------------|
D|-0--5---1---------5---1-3-4----0--5---1--------5---1/4-3-------------------|
A|-0----5-1----0-0----5-1-3-4----0----5-1----0-0---5-1/4-3-------------------|
D|-0------1----0-0------1-3-4----0------1----0-0-----1/4-3-------------------|
             pm---                           --------------------------------|
play above twice then,
       + +
e|---------------------------------------------------------------------------|
B|---------------------------------------------------------------------------|
G|---------------------------------------------------------------------------|
D|-----5---1/4-3-------------------------------------------------------------|
A|-0-0---5-1/4-3-------------------------------------------------------------|
D|-0-0-----1/4-3-------------------------------------------------------------|
  pm--

first bit twice again then
       + +             + +
e|---------------------------------------------------------------------------|
B|---------------------------------------------------------------------------|
G|---------------------------------------------------------------------------|
D|-----5---1-3-4-------5---1/4-3-0-------------------------------------------|
A|-0-0---5-1-3-4---0-0---5-1/4-3-0-------/12---------------------------------|
D|-0-0-----1-3-4---0-0-----1/4-3-0-------/12---------------------------------|
  pm--             ---

Verse riff                   end of riff        to next riff
e|--------------------------]------------------]-----------------------------|
B|--------------------------]------------------]-----------------------------|
G|--------------------------]------------------]-----------------------------|
D|--------------------------]------------------]-----------------------------|
A|-0-0---0-0-0------6-0-3-4-]-0-0---0-0-0-----0]---x-x-----------------------|
D|-0-0-0-0-0-0-0000-6-0-3-4-]-0-0-0-0-0-0-00000]---x-x-----------------------|
 pm    -       ----               -       -----------------------------------|

                   +++                             x2
e|---------------------------------------------------------------------------|
B|---------------------------------------------------------------------------|
G|---------------------------------------------------------------------------|
D|-----------------555-------------------------------------------------------|
A|-0-3-0-6-5-0-3-5------0-1--0-3-0-6-5-0-3-5---------------------------------|
D|-0-3-0-6-5-0-3-5------0-1--0-3-0-6-5-0-3-5-111133331111--------------------|
                                             pm------------------------------|
then
e|--------------------------------------------------------------------------|
B|--------------------------------------------------------------------------|
G|--------------------------------------------------------------------------|
D|--------------------------------------------------------------------------|
A|-0-3-0-----0-3-5-xxx--0-1--0-3-0-6-5-0-3----------------------------------|
D|-0-3-0-6-5-0-3-5-xxx--0-1--0-3-0-6-5-0-3----------------------------------|
         pm-

Solo backing riff repeat into scarred rif
e|---------------------------]-----------------------------------------------|
B|---------------------------]-----------------------------------------------|
G|---------------------------]-----------------------------------------------|
D|---------------------------]-----------------------------------------------|
A|-0-0---0-0-0--000-6-0-3-4--]-----------------------------------------------|
D!-0-0-1-0-0-0--000-6-0-3-4--]--00003333111144443333666644447777666677778888-|
pm     -                        ---------------------------------------------|

Outro, pretty sure its all open d except for the tail but i like the sound of this
e|---------------------------------------------------------------------------|
B|---------------------------------------------------------------------------|
G|---------------------------------------------------------------------------|
D|---------------------------------------------------------------------------|
A|-300-0-0---100-0-0---300-0-0---100-0-0---300-0-0---100-0-0-----------------|
D|-300-0-0---100-0-0---300-0-0---100-0-0---300-0-0---100-0-0-333-444-111-333-|


A!-300-0-0--100-0-0--300-0-0-100-0-0--300-0-0--100-0-0----------------------|
D!-300-0-0--100-0-0--300-0-0-100-0-0--300-0-0--100-0-0-333-444-111-333-111--|
All palm muted


************************************

| /   slide up
| \   slide down
| h   hammer-on
| p   pull-off
| ~   vibrato
| +   harmonic
| x   Mute note
| b   Bend
| pb  Pre-bend
| br  Bend release
| pbr Pre-bend release
| brb Bend release bend

************************************
Tap to rate this tab
 
# A B C D E F G H I J K L M N O P Q R S T U V W X Y Z