Machine Head - Desire To Fire tab

Artist: Machine Head
Song: Desire to fire
Album: The burning red, and a live track on the Supercharger album

I found this tab from Glenn Andreasen and I've modify it so as to figure out this 
tab the way I play it.

C ---------------------------| 
G ---------------------------| 
E --------------------------:| 
B -066-066-06-0--///--------:| 
F#-066-066-06-0--///---------| 
B -066-066-06-0--///---------| 

C -------------------------| 
G -9-10-9-10-9-10-9-10-----| 
E -------------------------| 
B ---------------------///-| 
F#---------------------///-| 
B ---------------------///-| 

Main Riff/Chorus 
C ---------------------| 
G ---------------------| 
E ---------------------| 
B --0-1--4--00-1--4----| x3, then
F#--0-1--4--00-1--4----| 
B --0-1--4--00-1--4----| 

C ---------------------------| 
G ---------------------------| 
E --------------------------:| 
B -066-066-06-0--///--------:| 
F#-066-066-06-0--///---------| 
B -066-066-06-0--///---------| 

            ..
Verse 
C ---------------------------| 
G ---------------------------| 
E ----8---------------------:| 
B ----x---------------------:| x3, then
F#----6----------------------| 
B ------0-00-030--030--------| 

C ---------------------------| 
G ---------------------------| 
E ----8---------------------:| 
B ----x---------------------:| 
F#----6--------3/555-5/666---| 
B ------0-00-0-3/555-5/666---|

Pre chorus:
C --------------------| 
G --------------------| play it twice while 2nd guitar plays some notes I
E -------------------:| 
B -------------------:| can't figure out there
F#------3/555-5/666---|  
B ------3/555-5/666---|

Chorus:
C ---------------------| 
G ---------------------| 
E ---------------------| 
B --0-1--4--00-1--4----| x3, then
F#--0-1--4--00-1--4----| 
B --0-1--4--00-1--4----| 

C ---------------------------| 
G ---------------------------| 
E --------------------------:| 
B -066-066-06-0--///--------:| 
F#-066-066-06-0--///---------| 
B -066-066-06-0--///---------| 


Verse 
C ---------------------------| 
G ---------------------------| 
E ----8---------------------:| 
B ----x---------------------:| x3, then
F#----6----------------------| 
B ------0-00-030--030--------| 

C ---------------------------| 
G ---------------------------| 
E ----8---------------------:| 
B ----x---------------------:| 
F#----6--------3/555-5/666---| 
B ------0-00-0-3/555-5/666---|

Pre chorus:
C --------------------| 
G --------------------| 
E -------------------:| x4 this time
B -------------------:|
F#------3/555-5/666---|  
B ------3/555-5/666---|



Chorus 
C ---------------------| 
G ---------------------| 
E ---------------------| 
B --0-1--4--00-1--4----| x3, then
F#--0-1--4--00-1--4----| 
B --0-1--4--00-1--4----| 

C ---------------------------| 
G ---------------------------| 
E --------------------------:| 
B -066-066-06-0--///--------:| 
F#-066-066-06-0--///---------| 
B -066-066-06-0--///---------| 


Breakdown 
 
C ----------------------------| 
G -------------99-------------| 
E -------------77-------------| 
B -0-0-0-0--------------------| 
F#-0-0-0-0--------------------| 
B -0-0-0-0--------------------| 
   . . . .
Use Wah if needed 

C -------------------------| 
G ----------99-------------| 
E ----------77-------------| play it 3 times
B -0-0---------------------| 
F#-0-0---------------------| 
B -0-0---------------------| 

C --------------------------| 
G -----------9--------------| 
E -----------7--------------| and the breakdown ends with this
B --------------------------| 
F#--------------------------| 
B -0-0-0-0------------------| 
   . . . .
Verse 
C ---------------------------| 
G ---------------------------| 
E ----8---------------------:| 
B ----x---------------------:| we can hear that they play this riff on the 
F#----6----------------------| 
B ------0-00-030--030--------| back with some effects



End Riff 
C ---------------------| 
G ---------------------| 
E ---------------------| 
B --0-1--4--00-1--4----| x3, then
F#--0-1--4--00-1--4----| 
B --0-1--4--00-1--4----| 

C ---------------------------| 
G ---------------------------| 
E --------------------------:| 
B -066-066-06-0--///--------:| 
F#-066-066-06-0--///---------| 
B -066-066-06-0--///---------| 


End the song with this
C ---------------------| 
G ---------------------| 
E --------------------:| 
B -066-066-06---------:| 
F#-066-066-06----------| 
B -066-066-06----------| 



here is my final version of this tab, I tab the last one to fast and i forgott some riffs
Tap to rate this tab
 
# A B C D E F G H I J K L M N O P Q R S T U V W X Y Z