Machine Head - Locust tab

This is my first attempt to do a song by ear so their could be
some wrong notes if so please let me know and also please rate
and comment.
The guitars are in drop b(b,f#,b,e,g#,c#)

Guitar 1 Play 4x
|--------------------------------------------------------------------|
|--------------------------------------------------------------------|
|--------------------------------------------------------------------|
|0---0---0---0-2---3-0---0---0---0---0---0------0-------0---0--------|
|---------------------------------------------------0----------------|
|--0---0---0-----0-----0---0---0---2---2---2-/7---7---7---5---5------|

Guitar 2 play 3x
|--------------------------------------------------------------------|
|---------------------------------8-6--------------------------------|
|-7-10--------------------------9-----7------------------------------|
|--------------------------------------------------------------------|
|--------------------------------------------------------------------|
|--------------------------------------------------------------------|

Play this the fourth time
|---------------------------------0----------------------------------|
|---------------------------------8-6--------------------------------|
|-7-10--------------------------9---7--------------------------------|
|--------------------------------------------------------------------|
|--------------------------------------------------------------------|
|--------------------------------------------------------------------|

This riff is a harmony between guitar 1 and guitar 2
The rytheme is easy it is just like the first riff minus the E string
but you still time it like you are picking the E string

Guitar 1
|--------------------------------------------------------------------|
|--------------------------------------------------------------------|
|--------------------------------------------------------------------|
|-0-0-0-0-2-3-0-0-0-0-2-2-2-2-/7-7-5-7-5-3-2-------------------------|
|--------------------------------------------------------------------|
|--------------------------------------------------------------------|

Guitar 2
|--------------------------------------------------------------------|
|--------------------------------------------------------------------|
|-7-7-7-7-9-10-7-7-7-7-9-9-9-9-/14-14-12-14-12-10-9------------------|
|--------------------------------------------------------------------|
|--------------------------------------------------------------------|
|--------------------------------------------------------------------|
Tap to rate this tab
 
# A B C D E F G H I J K L M N O P Q R S T U V W X Y Z