Song name
# A B C D E F G H I J K L M N O P Q R S T U V W X Y Z

Machine Head - Locust tab

Hey, this is the tab for the new song Locust by Machine Head. 
I did the main riffs and tabbed only what I play when I 
play along with the track.

Tuning is drop B but I think you have to go a 
half semi-tone up so you're in between drop B and drop C,
 sounds a bit better

C#|---------------------------------------------------------------------|
G#|---------------------------------------------------------------------|
E |---------------------------------------------------------------------|
B |0---0---0---0-2---3-0---0---0---0---0---0---0---0---0-----0---0---0--|
F#|---------------------------------------------------------------------|
B |--0---0---0-----0-----0---0---0---0---2---2---2---7---8-5---5---5---5|
X6                                    !Clean!


C#|----------------------------------------------------5-6--------------|
G#|3---3---3---3-5---6-3---3---3---3---3---5---5---5-------8---8-7-5---5|
E |---------------------------------------------------------------------|
B |---------------------------------------------------------------------|
F#|---------------------------------------------------------------------|
B |---------------------------------------------------------------------|
Harmonize during 5th and 6th time 
(I usually play this part instead of the other when I play with the track)
                                        !Clean!


Drum solo



C#|-----------------------------------------|
G#|-----------------------------------------|
E |-7-----12--10--9~---10--7-----10--9---5--|
B |-----------------------------------------|
F#|-5-----10--8---7~---8---5-----8---7---3--|
B |-----0-----------------------------------|

C#|-----------------------------------------|
G#|-----------------------------------------|
E |-7-----12--10--14~--15--12----14--12--9--|
B |-----------------------------------------|
F#|-5-----10--8---12~--13--10----12--10--7--|
B |-----0-----------------------------------|

C#|-----------------------------------------|
G#|-----------------------------------------|
E |-7-----12--10--9~---10--7-----10--9---5--|
B |-----------------------------------------|
F#|-5-----10--8---7~---8---5-----8---7---3--|
B |-----0-----------------------------------|

C#|---------------------------------------------|
G#|---------------------------------------------|
E |-12--10--7---9---5----5--5--5--5--6--6--6--6-|
B |---------------------------------------------|
F#|-10--8---5---7---3----3--3--3--3--4--4--4--4-|
B |---------------------------------------------|
This part is harmonized but I don't know the harmonize
This is the same as the chorus part


C#|---------------|
G#|---------------|
E |---------------|
B |---------------|
F#|---------------|
B |-3-2-1-2-3-2-1-|


C#|---------------------------------|
G#|---------------------------------|
E |---------------------------------|
B |---------------------------------|
F#|-----5-----------5-----------5---|
B |-0-6---6-----0-6---6-----0-6---6-|
This riff has slightly different endings, they are noted below

First , third, fifth and seventh ending

C#|---------------------------|
G#|---------------------------|
E |---------------------------|
B |---------------------------|
F#|---------------------------|
B |-0(0)0-0-0---0-0-0---0-0-0-|


Second and Sixth ending

C#|---------------------------|
G#|---------------------------|
E |---------------------------|
B |---------5*------5*------5*| (natural harmonic)
F#|---------------------------|
B |-0(0)0-0-----0-0-----0-0---|


Fourth and Eighth ending

C#|---------------------------|
G#|---------------------------|
E |---------5*------5*------5*| (natural harmonic)
B |---------------------------|
F#|---------------------------|
B |-0(0)0-0-----0-0-----0-0---|


Then some cool, fast riff I can't play, 
I play the chords on the background there

C#|--------------------------------------------------|
G#|--------------------------------------------------|
E |--------------------------------------------------|
B |-3--------5--------7--------10-------3--------5---|
F#|-1--------3--------5--------8--------1--------3---|
B |--------------------------------------------------|

Now repeat from the octave chord part (chorus)

I don't know any more, 
but you should be able to play a big part with these riffs.
Tap to rate this tab
# A B C D E F G H I J K L M N O P Q R S T U V W X Y Z