Song name
# A B C D E F G H I J K L M N O P Q R S T U V W X Y Z

Machine Head - Darkness Within tab

Darkness Within
Machine Head
Unto The Locust
Drop B (B F# B E G# C#)

Intro
|-----------------------|
|-----------------------|
|-14----12----15----10--|
|-0-----0-----0-----0---|
|-----------------------|
|-----------------------|

|----------------------------------------|
|----------------------------------------|
|-10-10-9-----10-10-9---------10-10-9----|
|-0--0--0-0-0-0--0--0-0-0-0-0-0--0--0-0--|
|----------------------------------------|
|----------------------------------------|
          * *         * * * *         *

|-------------------------------------------------|
|-------------------------------------------------|
|-10-10-9--------10-10-9--------------10-10-9-----|
|-11-11-11-11-11-11-11-11-11-11-11-11-11-11-11-11-|
|-------------------------------------------------|
|-------------------------------------------------|
           *  *           *  *  *  *           *

|-------------------------------------------------|
|-------------------------------------------------|
|-10-10-9--------10-10-9--------------10-10-9-----|
|-10-10-10-10-10-10-10-10-10-10-10-10-10-10-10-10-|
|-------------------------------------------------|
|-------------------------------------------------|
           *  *           *  *  *  *           *

|-------------------------------------------|
|-------------------------------------------|
|-10----9------10----12----10----9h10----9--|
|-8--8--8-8-8--8--8--8--8--8--8--8-8--8--8--|
|-------------------------------------------|
|-------------------------------------------|
     *    * *    *      *     *       *

Then the next bit goes...
(all the 7's are natural harmonics)
|---------------------------------------------------------------------|
|---------------------------------------------------------------------|
|-----7-------7-------7-------7--------7--------7--------7-------7----|
|---7---7---7---7---7---7---7---7----7---7----7---7----7---7---7---7--|
|----------------------------------------------------0-------0--------|
|-8-------8-------5-------5--------0--------0-------------------------|

|---------------------------------------------------------------------|
|---------------------------------------------------------------------|
|-----7-------7-------7-------7--------7--------7--------7-------7----|
|---7---7---7---7---7---7---7---7----7---7----7---7----7---7---7---7--|
|----------------------------------0-------0---------0-------0--------|
|-8-------8-------5-------5-------------------------------------------|


|------------|
|------------|
|-14----12---|
|-0-----0----|
|------------|
|------------|

Then just repeat the whole thing with some distortion and a bit of flange.

Then after that...
|-----------------------------------------------------------------|
|-----------------------------------------------------------------|
|-------------------------------------------------------9/7-10-9--|
|-----------------------------------------------------------------|
|-0-0-0-0-0-0-0-7-7-7-7-7-7-7-7-8-8-8-8-5-5-5-5-0-0-0-0-7/5-8--7--|
|-0-0-0-0-0-0-0-7-7-7-7-7-7-7-7-8-8-8-8-5-5-5-5-0-0-0-0-----------|

Havn't figured out the solo, so yeah.

Well, if you havn't noticed already this is my first tab. Overall pretty easy song, 
might tab the solo and the rest of it if I get time.


Keep it metal \m/
Tap to rate this tab
# A B C D E F G H I J K L M N O P Q R S T U V W X Y Z