Song name
# A B C D E F G H I J K L M N O P Q R S T U V W X Y Z

Machine Head - Darkness Within Acoustic tab

Darkness Within (Acoustic version) by Machine Head 

Tuning: Drop B

Intro

Acoustic guitar
|------------------|------------------|
|------------------|------------------|
|-14---------------|-12---------------|
|--0---------------|--0---------------|
|------------------|------------------|
|------------------|------------------|

|------------------|------------------|
|------------------|------------------|
|-15---------------|-10---------------|
|--0---------------|--0---------------|
|------------------|------------------|
|------------------|------------------|
Verse 1

|------------------------|------------------------|
|-6---5---6---5---5-6-5--|-6---5---6---5---5-6-5--|
|--7---7----7--7-7---7-7-|--6---6----6--6-6---6-6-|
|-------0-------0--------|-------0-------0--------|
|------------------------|------------------------|
|------------------------|------------------------|

|------------------------|------------------------|
|-6---5---6---5---5-6-5--|-6---5---5-7-8-6---8-6--|
|--5---5----5--5-5---5-5-|--3---3-------5-5---5-5-|
|-------0-------0--------|-------0---------0------|
|------------------------|------------------------|
|------------------------|------------------------|

|------------------------|------------------------|
|-6---5---6---5---5-6-5--|-6---5---6---5---5-6-5--|
|--7---7----7--7-7---7-7-|--6---6----6--6-6---6-6-|
|-------0-------0--------|-------0-------0--------|
|------------------------|------------------------|
|------------------------|------------------------|

|------------------------|----------------------------------|
|-6---5---6---5---5-6-5--|-10--8-----8-10-11--13-10-11-10-8-|
|--5---5----5--5-5---5-5-|--7--7-----7--7--7---7--7--7--7-7-|
|-------0-------0--------|---0---0-0-0--0--0-0--0--0-0--0-0-|
|------------------------|----------------------------------|
|------------------------|----------------------------------|

Chorus 1:
    NH--|   NH--|   NH--|   NH--|     NH--|   NH--|    NH--|    NH--|
|---------------------------------|-----------------------------------|
|---------------------------------|-----------------------------------|
|-----7-------7-------7-------7---|-----7-------7--------7--------7---|
|---7---7---7---7---7---7---7---7-|---7---7---7---7----7---7----7---7-|
|---------------------------------|-----------------------------------|
|-8-------8-------5-------5-------|-0-------0-------10-------10-------|

    NH--|   NH--|   NH--|   NH--|     NH--|   NH--|   NH--|   NH--|
|---------------------------------|---------------------------------|
|---------------------------------|---------------------------------|
|-----7-------7-------7-------7---|-----7-------7-------7-------7---|
|---7---7---7---7---7---7---7---7-|---7---7---7---7---7---7---7---7-|
|---------------------------------|-0-------0-------0-------0-------|
|-8-------8-------5-------5-------|---------------------------------|

Bridge
|------------------|------------------|
|------------------|------------------|
|-14---------------|-12---------------|
|--0---------------|--0---------------|
|------------------|------------------|
|------------------|------------------|

Verse 2:
The same except the last part x 2

Chorus:

He uses these chords:
(Listen to the song to get the strumming pattern

|-------------------|---------3---------|
|--------6----------|---------3---------|
|--------7----------|---------5---------|
|--------8----------|---------5---------|
|--------x----------|---------3---------|
|--------8----------|---------5---------|

|--------1----------|---------0---------|
|--------3----------|---------8---------|
|--------2----------|---------9---------|
|--------3----------|--------10---------|
|--------0----------|---------x---------|
|--------0----------|--------10---------|

|-------------------|---------3---------|
|--------6----------|---------3---------|
|--------7----------|---------5---------|
|--------8----------|---------5---------|
|--------x----------|---------3---------|
|--------8----------|---------5---------|

|--------5----------|---------5---------|
|--------5----------|---------5---------|
|--------6----------|---------6---------|
|--------7----------|---------7---------|
|--------x----------|---------x---------|
|--------7----------|---------7---------|

Bridge:
(Where he sings the melody)

|---------------------------------|---------------------------------|
|---------------------------------|---------------------------------|
|---------------------------------|---------------------------------|
|-7-7-7-7-7-7-7-7-7-7-7-7-7-7-7-7-|-7-7-7-7-7-7-7-7-7-7-7-7-7-7-7-7-|
|-5-5-5-5-5-5-5-5-5-5-5-5-5-5-5-5-|-4-4-4-4-4-4-4-4-4-4-4-4-4-4-4-4-|
|-0-0-0-0-0-0-0-0-0-0-0-0-0-0-0-0-|---------------------------------|

|---------------------------------|---------------------------------|
|---------------------------------|---------------------------------|
|---------------------------------|---------------------------------|
|-7-7-7-7-7-7-7-7-7-7-7-7-7-7-7-7-|-7-7-7-7-7-7-7-7-7-7-7-7-7-7-7-7-|
|-3-3-3-3-3-3-3-3-3-3-3-3-3-3-3-3-|-4-4-4-4-4-4-4-4-4-4-4-4-4-4-4-4-|
|---------------------------------|---------------------------------|

|--------------------------------------|
|--------------------------------------|
|--------------10-10-9-9-12-12-10-9-10-|
|-7-7-7-7-7-7-7------------------------|
|-5-5-5-5-5-5-5-8--8-7-7-10-10--8-7--8-|
|-0-0-0-0-0-0-0-0--0-0-0--0--0--0-0--0-|

And that's it except in the next chorus instead of the first chord he plays the 
first part of the harmonics-thing.
Tap to rate this tab
# A B C D E F G H I J K L M N O P Q R S T U V W X Y Z