Song name
# A B C D E F G H I J K L M N O P Q R S T U V W X Y Z

Machine Head - Violate tab

/ slide
pm palm mute


e-------------------------------------------------|
B-------------------------------------------------|
G-------------------------------------------------|
D---0--0--0--0--1/5--5--0---0-1/4--3---0--0--0--0-|
A---0--0--0--0--1/5--5--0---0-1/4--3---0--0--0--0-|
D---0--0--0--0--1/5--5--0---0-1/4--3---0--0--0--0-|
    pm pm pm                        pm pm pm pm
repeat twice

e---------------------------------------------------|
B---------------------------------------------------|
G---------------------------------------------------|
D---0--0--0--0--1/5--5--5--5--0--1/4--3--0--0--0--0-|
A---0--0--0--0--1/5--5--5--5--0--1/4--3--0--0--0--0-|
D---0--0--0--0--1/5--5--5--5--0--1/4--3--0--0--0--0-|
    pm pm pm                          pm pm pm pm
then repeat all
Tap to rate this tab
# A B C D E F G H I J K L M N O P Q R S T U V W X Y Z