Guitaretab - guitar tabs
Song name
# A B C D E F G H I J K L M N O P Q R S T U V W X Y Z

Machine Head - Descend The Shades Of Night tab

Tuning: Drop B (b, f#, b, e)
The timiming isn't perfect so listen to the song to work it out.

Play nothing untill first verse (1:16)

|----7-7-7-7---7-7-7-7---7-7-7-7---9-9-9-9--|
|----------------------5---------7----------|    x2
|--5---------8------------------------------|    
|-------------------------------------------|
    

Pre-Chorus (1:44) 

|-------------------|
|-------------------|   x1
|--5-5-5-5-7-7-7-7--|
|-------------------|


Chorus (1:51)

|----------------------|
|----------------------|   x2
|----------------------|
|--8-000-8----0-000-0--|

|---------------------------------------------------------------|
|---------------------------------------------------------------|
|---------------------------------------------------------------| x1
|--10-888-8----7-555-5----5-777-7----8-777-7-555-5-333-3-222-0--|


Play nothing untill (3:07)

|---------|  
|---------|   
|---------| (Bass Slide)  
|--1/8\3--|  

|-------------------------------------------------------------------|
|-------------------------------------------------------------------|
|-------------------------------------------------------------------|
|--0-0-0-0-0-0-0-0-3-3-3-3-3-3-3-3-5-5-5-5-5-5-5-5-7-7-7-7-7-7-7-7--|


Pre-Chorus (3:36)

|-------------------|
|-------------------|   x1
|--5-5-5-5-7-7-7-7--|
|-------------------|


Chorus (3:43)

|----------------------|
|----------------------|   x2
|----------------------|
|--8-000-8----0-000-0--|

|---------------------------------------------------------------|
|---------------------------------------------------------------|
|---------------------------------------------------------------| x1
|--10-888-8----7-555-5----5-777-7----8-777-7-555-5-333-3-222-0--|

[ Tab from: http://www.guitaretab.com/m/machine-head/49705.html ]
Solo (4:10)

|-----------------------------------|
|-----------------------------------| x1
|-----------------------------------|
|--0-0-0-0-2-2-2-2-8-8-8-8-3-3-2-2--|

|---------------------------------------------------|
|---------------------------------------------------| x1
|---------------------------------------------------|
|--0-0-0-0-2-2-2-2-8-8-8-8-8-777-7-555-5-333-3-222--|

|------------------------------------------------------|
|------------------------------------------------------|
|------------------------------------------------------| x2
|--10-8-8-8-7-5-5-5-5-7-7-7-7-8-777-7-555-5-333-3-222--|


Play nothing untill (5:15)

|-------------------------------------------------------------------|
|-------------------------------------------------------------------|
|--1-1-1-1-1-1-1-1-3-3-3-3-3-3-3-3-5-5-5-5-5-5-5-5-3-3-3-3-3-3-3-3--| x2
|-------------------------------------------------------------------|


Heavy Bridge (5:41)

|-----------------------|
|-----------------------|
|-----------------------| x3
|--0-000-0-000-0-000-2--|

|-----------------------------------|
|-----------------------------------|
|-----------------------------------| x1
|--5-5-5-5-5-5-5-5-7-7-7-7-7-7-7-7--|


Chorus (5:58)

|----------------------|
|----------------------|   x2
|----------------------|
|--8-000-8----0-000-0--|

|---------------------------------------------------------------|
|---------------------------------------------------------------|
|---------------------------------------------------------------| x1
|--10-888-8----7-555-5----5-777-7----8-777-7-555-5-333-3-222-0--|

|---------------------|
|---------------------|
|---------------------|
|--0-------0-------0--|

Play nothing for rest of song
Related for Descend The Shades Of Night tab
Advertisement will be closed in 10 seconds