Song name
# A B C D E F G H I J K L M N O P Q R S T U V W X Y Z

Machine Head - Days Turn Blue To Gray tab

Machine Head - Days Turn Blue To Grey
Tuning: Drop B (B,F#,B,E,G#,C#)
Album: Through the Ashes of Empires

C#|------------------------------------------------------------| 
G#|---------------------------------------------333-222--------|
E |--0-2-0-2-2-2-5^--x3 then--------0-2-0-2-0-0----------------|
B |------------------------------------------------------------|
F#|------------------------------------------------------------|
B |------------------------------------------------------------|

  Chorus 
C#|------------------------------------------------------------| 
G#|------------------------------------------------------------|
E |------------7/9---------------------------------------------|
B |--0-2--0-2--7/9---------x3 then--0-2--0-2--0--151515\141414-|
F#|--0-2--0-2--5/7----10^-----------0-2--0-2--0--151515\141414-|
B |--0-2--0-2-------0---------------0-2--0-2--0--131313\121212-|

   Verse
C#|------------------------------------------------------------| 
G#|------------------------------------------------------------|
E |--4--4/7-7--------------------------------------------------|
B |--4--4/7-7---5--5/7-7---x4----------------------------------|
F#|--2--2/5-5---5--5/7-7---------------------------------------|
B |-------------5--5/7-7---------------------------------------|

   Interlude
C#|------------------------------------------------------------| 
G#|------------------------------------------------------------|
E |--------------12-11-----------------------------------------|
B |--14-12-14-12-------12-14-----------------------------------|
F#|------------------------------------------------------------|
B |------------------------------------------------------------|

   Harmonized version
C#|------------------------------------------------------------| 
G#|------------------------------------------------------------|
E |--------------16-14-----------------------------------------|
B |--17-16-17-16-------16-17-----------------------------------|
F#|------------------------------------------------------------|

It's all i can be arsed doin at the moment
B |------------------------------------------------------------|
Tap to rate this tab
# A B C D E F G H I J K L M N O P Q R S T U V W X Y Z