Guitaretab - guitar tabs
Song name
# A B C D E F G H I J K L M N O P Q R S T U V W X Y Z

Machine Head - Down To None tab

MACHINE HEAD 
DOWN TO NONE 
The More Things Change... 
 
Tabbed by James cooper
 If any of it is wrong email me at shawn_carter41@yahpoo.com
 
 
 
    Riff A: 
C# |--------------------------------------------------------| 
G# |------15-14-13-----15-14-13-9---------------------------| 
 E |-------------------------------8-8-8-8-8----------------| 
 B |--------------------------------------------------------| 
F# |--------------------------------------------------------| 
 B |---0-------------0--------------------------------------| 
 
 
 
  Riff B: 
 |--------------------------------------------------------| 
 |-----15-14-13--------15-13-14-9-------------------------| 
 |--------------------------------8-8-8-8-8---------------| 
 |--------------------------------6-6-6-6-6---------------| 
 |--------------------------------------------------------| 
 |---0---------------0------------------------------------| 
 
 
 
  Riff C: 
 |--------------------------------| 
 |--------------------------------| 
 |-------------7------------------| 
 |---0----0----6----------------0-| 
 |---0----0----5----------------0-| 
 |---0----0---------02b2b--1--0-| 
		     					\"B\" means Bend 
 
 
  Riff D: 
 |--------------------------------------| 
 |--------------------------------------| 
 |--------------------------------------| 
 |------------------0-------1-0---------| 
 |------------------0-------1-0---------| 
 |---0--/12-11-10-5-0-2b-2b-1-0---------| 
		          				\"/\" means Slide 
 
 
  Riff E: 
 |------------------------------------------| 
 |------------------------------------------| 
 |------------------------------------------| 
 |-----------------0-0----------------------| 
 |-----------------0-0-------------0-1\4----| 
 |---0-/12-11-10-5-0-0-/12-11-10-5-0-1\4----| 
	  
  Riff F: 
 |-----------------------------| 
 |-----------------------------| 
 |-----------------(5)---------| 
 |---(5)-----------------------| 
 |-----------------------------| 
 |-----------------------------| 
						\"(*)\" means Natural Harmonic 
 
 
 
  Riff G: 
 |----------------------------------------------| 
 |----------------------------------------------| 
 |----------------------------------------------| 
 |----------------------------------------------| 
 |---0----------0----------0----------3-6-5-6---| 
 |---0--0-0-0-0-0--0-0-0-0-0--0-0-0-0-3-6-5-6---| 
 
 
 
  Riff H: 
 |----------------------------------------| 
 |----------------------------------------| 
 |----------------------------------------| 
 |----------------------------------------| 
 |---0----------0----------0----------3---| 
 |---0--0-0-0-0-0--0-0-0-0-0--0-0-0-0-3---| 
 
 
 
  Riff I: 
 |---------------------X-X-X-X---| 
 |---------------------X-X-X-X---| 
 |---------------------X-X-X-X---| 
 |---------------------X-X-X-X---| 
 |---1--0--1--0--1--0--X-X-X-X---| 
 |---1--0--1--0--1--0--X-X-X-X---| 
									\"X\" means Ghost-note 
 
 
  Riff J: 
 |------------------------------| 
 |------------------------------| 
 |---13----13----13-------15----| 
 |------12----12----12-13-------| 
 |------------------------------| 
 |------------------------------| 
 
 
 
  Riff K: 
 |-------------------------------| 
 |-------------------------------| 
 |-------------------------------| 
 |-------------------------------| 
 |---0--0-----0--0-----0---------| 
 |---0--0_1---0--0_1---0_1-4-1---| 
									\"_\" means Hammer 
 
 
 
  Riff L: 
 |-------------------------------------| 
 |-------------------------------------| 
 |----------X-X---------X-X------------| 
 |----------X-X---------X-X------------| 
 |---0--0---X-X--0--0---X-X--0---------| 
 |---0--0_1------0--0_1------0_1-4-1---| 
									\"_\" means Hammer 
 
 
  Riff M:                           Riff N: 
 |------------------------|        |----------------------| 
 |------------------------|        |----------------------| 
 |------------------(5)---|        |----------------------| 
 |---(5)--(5)--(5)--------|        |----------------------| 
 |------------------------|        |---1--0--1--0--1--0---| 
 |------------------------|        |---1--0--1--0--1--0---| 
 
 
 
 
 
  Song Order: 
 
 Intro: Riff A 3x 
	  Riff B 1x 
	  Riff C 4x 
	  Riff D 4x (The 1st Guitar Playing Riff C) 
	  Riff E 4x (Played by both Guitars) 
 
 Part I: Riff F 2x 
	   Riff F 4x (The 2nd Guitar doing a \"Wah-Wah\" stuff) 
	   Riff G 4x (\"Bow down to no one/ Bow down to none\") 
	   Riff G 3x (1st Verse) 
	   Riff H 1x (1st Verse) 
 
	 Riff I 4x (Played by Guitar 1) 
	 Riff J 4x (Played by Guitar 2) 
 
 Part II: Riff F 4x (The 2nd Guitar doing a \"Wah-Wah\" stuff) 
	    Riff G 4x (\"Bow down to no one/ Bow down to none\") 
	    Riff G 3x (2nd Verse) 
	    Riff H 1x (2nd Verse) 
 
	Riff I 4x (Played by Guitar 1)   {Cold... Cold...} 
	Riff J 4x (Played by Guitar 2)   {Cold... Cold...} 
 
 Part III: Riff K 2x (Alone) 
	     Riff L 2x (Alone) 
	     Riff L 8x (Played by both Guitars) 
	     Riff M 4x (The 2nd Guitar doing a \"Wah-Wah\" stuff) 
	     Riff G 4x (\"Bow down to no one/ Bow down to none\") 
 
	Riff J 4x (Played by Guitar 1) 
	Riff G 4x (Played by Guitar 2) 
 
   Outro: Riff I 3x (Played by both Guitars) 
	    Riff N 1x


[ Tab from: http://www.guitaretab.com/m/machine-head/78248.html ]
Related for Down To None tab