Song name
# A B C D E F G H I J K L M N O P Q R S T U V W X Y Z

Machinemade God - Teeth Vs Curb tab

----------------------------------------------------------------------------
                     Teeth vs. Curb - Machinemade God
----------------------------------------------------------------------------
Tabbed by:arcains_valor
Email:arcains_valor@yahoo.com

This is my first tab ever, so go easy.
Have fun.

Tuning:from low to high
       C G C F A D

Intro I
  |--------------------------------|
  |--------------------------------|
  |--------------------------------|
  |--------------------------------|
  |-------8---0---0---------1---3--|
  |-0-000---0---0---0-0-000---0----|
PM  . ...   .   .   . . ...   .

  |-------------------------------|
  |-------------------------------|
  |-------------------------------|
  |------------------------0---2--|
  |-------8---0---0--------1---3--|
  |-0-000---0---0---0-0000---0----|
PM  . ...   .   .   . ....   .

Intro II                      x4
  |-----------------------------|
  |-----------------------------|
  |-----------------------------|
  |-----------------------------|
  |-----888800000000----11113333|
  |-0000------------0000--------|
PM

Verse I                            x2
  |---------------------------------|
  |---------------------------------|
  |---------------------------------|
  |---------------------------------|
  |-------5---8---------3---7-------|
  |-0-0-0---0---0-0-0-0---0---0-0-0-|
PM  . . .   .   . . . .   .   . . .


  |---------------------------------|
  |---------------------------------|
  |---------------------------------|
  |-----------------3---7---2---5---|
  |-------5---8---------------------|
  |-0-0-0---0---0-0---0---0---0---0-|
PM  . . .   .   . .   .   .   .   .


Sorry this is all i got for now.



| /  slide up
| \  slide down
| h  hammer-on
| p  pull-off
| ~  vibrato
| +  harmonic
| x  Mute note
============================================================================
        
----------------------------------------------------------------------------
Tap to rate this tab
 
# A B C D E F G H I J K L M N O P Q R S T U V W X Y Z