Song name
# A B C D E F G H I J K L M N O P Q R S T U V W X Y Z

Macklemore And Ryan Lewis - Same Love tab

capo on 3rd fret
\= slide

E-------------------------1---1-------1----------------------|
A---3---3------3----0-----------------------8----------------|
D-----------T----------T-----------T-------------------------|
G-----------A-------5--A--5-----2--A--5-----8\9--------------|
B---8-----5-P--8-------P-----------P-------------------------|
e------------------------------------------------------------|

E-------------------------1---1-------1----------------------|
A---3---3------3----0-----------------------0----------------|
D-----------T----------T-----------T-------------------------|
G-----------A-------5--A--5-----2--A--5-----3----------------|
B---8-----5-P--8-------P-----------P-------------------------|
e------------------------------------------------------------|

this is how it supposed to sound like:
http://www.youtube.com/watch?v=SVns9Q-sxnY&feature=youtu.be

i only play the second part though xD
Tap to rate this tab
 
# A B C D E F G H I J K L M N O P Q R S T U V W X Y Z