Song name
# A B C D E F G H I J K L M N O P Q R S T U V W X Y Z

Macklemore And Ryan Lewis - Otherside tab

Otherside
Macklemore & Ryan Lewis

This is probably the most detailed and meticulously done Mack & RL tab on the
internet. Most people who listen to their music probably wouldn't take the
time to convert the sounds to guitar riffs, let alone tab everything out.
Well, I did both. I listened really closely and checked every riff like five
or ten times, and this is as close to 100% as it could possibly get. I even
tried my best to put appropriate amount of spaces in between notes to account
for rests, to give it more of a sheet music feel.

Enjoy! #sharkfacegang


Red Hot Chili Peppers Riff
Guitar
E|-------------------------------------------------------------------|
B|-------------------------------------------------------------------|
G|-------------------------------------------------------------------|
D|-----------------7-----7---9-7-------------------------------------|
A|-7-----7-----7-----------------10-7---------------5-----5-----5----|
E|-------------------------------------------------------------------|

Bass
G|-------------------------------------------------------------------|
D|-------------------------------------------------------------------|
A|----------------------------------3-----3---3-3--------------------|
E|-5-----5---5-3\---1-----1---1-1-----------------0-3-----3-----3----|


Ryan Lewis Riff
E|-----------------|-----------------|-----------------|-----------------|
B|-------5-----5---|-------6-----6-5-|-------5-----5-3-|-------3---------|
G|-----5-----5---5-|-----5-----5-----|-----5-----5-----|-----4-----5-5-4-|
D|---7-----7-------|---7-----7-------|---5-----5-------|---5-----5-------|
A|-----------------|-----------------|-----------------|-----------------|
E|-----------------|-----------------|-----------------|-----------------|


(1:01)
Sounds like the wind is blowing
When played on a guitar, these notes sound best if you use Tremolo picking,
AKA pick each note rapidly and several times
Just listen to the song for the changes
E |-17-----------------|----------------15---|-17------------------|
B |--------------------|-13---15---17--------|-----------17---15---|
G |----------14--------|---------------------|---------------------|
D |--------------------|---------------------|---------------------|
A |--------------------|---------------------|---------------------|
E |--------------------|---------------------|---------------------|


Violins
Left Earphone
E |-------------------------------------|-----------------------------------|
B |----------------8----5---------------|---------------------8----5--------|
G |------4----5-------------------4-----|------4----5----7--------------7---|
D |-7------------------------5----------|-7---------------------------------|
A |-------------------------------------|-----------------------------------|
E |-------------------------------------|-----------------------------------|
     (RHCP Riff comes in, repeat these two measures directly above)

Right Earphone
E |----------------10---8---------------|-------------------------------5/7-|
B |---------------------------5----8----|-----------5----6----8-------------|
G |-5----7----9-------------------------|-5----7----------------------------|
D |-------------------------------------|-----------------------------------|
A |-------------------------------------|-----------------------------------|
E |-------------------------------------|-----------------------------------|
(RHCP Riff comes in)
E |-------------------------------------|--------------------------8----7---|
B |----------------8----5----------3----|-----------5----6----8-------------|
G |-5----7----9-------------------------|-5----7----------------------------|
D |-------------------------------------|-----------------------------------|
A |-------------------------------------|-----------------------------------|
E |-------------------------------------|-----------------------------------|

Third Violin
E |-------------------------------------|------8---------10---12---15---15--|
B |-------------------------------------|-----------------------------------|
G |-------nothing-yet-------------------|-----------------------------------|
D |-------------------------------------|-----------------------------------|
A |-------------------------------------|-----------------------------------|
E |-------------------------------------|-----------------------------------|
(RHCP Riff comes in)
E |-20------20------20----222019--|-17--------17----15---13-12-12--------15-|
B |-------------------------------|-----------------------------------------|
G |-------------------------------|-----------------------------------------|
D |-------------------------------|-----------------------------------------|
A |-------------------------------|-----------------------------------------|
E |-------------------------------|-----------------------------------------|

Fourth Violin
E |-------------------------------------|-----------------------------------|
B |-------------------------------------|-----------------------------------|
G |-------nothing-yet-------------------|-----------------------------------|
D |-------------------------------------|-----still-nothing-yet!------------|
A |-------------------------------------|-----------------------------------|
E |-------------------------------------|-----------------------------------|
(RHCP Riff comes in)
E |-20------20------20----222019--|-12------------12-----------12--------10-|
B |-------------------------------|-----------------------------------------|
G |-------------------------------|-----------------------------------------|
D |-------------------------------|-----------------------------------------|
A |-------------------------------|-----------------------------------------|
E |-------------------------------|-----------------------------------------|


Ryan Lewis Riff Remixed (2:48)
E|-----------------|-----------------|-----------------|-----------------|
B|-----------------|---5-----5-----5-|---5---5---5\3---|---5---5---5\3---|
G|-4-4-5-7---4-5-7-|-----5-----5-5---|-----------------|-----------------|
D|-----------------|-------5---------|-5---5---5-------|-5---5---5-------|
A|-----------------|-----------------|-----------------|-----------------|
E|-----------------|-----------------|-----------------|-----------------|



Outro (4:35)
RHCP Riff in background

Left Earphone
E|-17-17-15-15-15----------12-12----------------|
B|----------------12-13-15-------15-15-15-13-12-|
G|----------------------------------------------|
D|----------------------------------------------|
A|----------------------------------------------|
E|----------------------------------------------|

E|-17-17-15-15----------------------------------|
B|-------------12-12-13-15----13----15----------|
G|-------------------------------------------12-|
D|-------------------------------------14-15----|
A|----------------------------------------------|
E|----------------------------------------------|

Right Earphone
E|-17-17-15-15-------------12-12----------------|
B|-------------12-12-13-15-------15-15-15-13-12-|
G|----------------------------------------------|
D|----------------------------------------------|
A|----------------------------------------------|
E|----------------------------------------------|

E|-17-17-15-15----------------------------------|
B|-------------12-12-13-15----13----15-15-13-12-|
G|----------------------------------------------|
D|----------------------------------------------|
A|----------------------------------------------|
E|----------------------------------------------|
Tap to rate this tab
# A B C D E F G H I J K L M N O P Q R S T U V W X Y Z